Complice Eterno, Glup! (tablatura)

Autor: Anónimo | 34062 visualizaciones

Dedicado a Armando y Caty...
 
      RE                     LA
Te propongo que hagamos un trato
Riff 1       SIm              SOL
Un pacto que selle nuestro secreto


(Riff 1)

E--------------------------2------
B------5-----3-------2-----3------
G--------------------------4------
D--------------------------4------
A--------------------------2------
E--------------------------2------


Tu te callas y yo me callo tambien
y que nadie se entere que lo nuestro es un hecho

            SOL             SOLm
Pero a obscuras solitos los dos
       RE              SIm
Nos amemos una y otra vez
      SOL            LA
Nos quedemos al amanecer


Te propongo que lo hagamos asi
para que no nos culpen de volvernos locos


Por que nadie se atreve a entender
semejante cariño entre nosotros


Y si supieran las cosas que tu
me regalas en tu florecer
ese aroma de hacerte mujer


         SOL                     SOLm
Y te propongo que lo pienses dos veces
                RE                    SIm
que te tomes tu tiempo que lo hagamos lento
                 SOL                     LA
como Dios hizo al cielo para que sea perfecto

Y si me pides que yo te haga mujer
me pides que sea tu complice eterno
Tu verdugo de niña tu platónico amor


(En el punteo se sigue las notas)

E-------------------------------------------------------------------------------------------10-------
B----7-7-777-0---7-777-5---555-7-8-10--------7----------------------5p6-----------6h10----------8787-
G--------------------------------------7------6-66p6p7--4---444--6-7-----444--6-7--------------------
D----------------------------------------------------------------------------------------------------
A----------------------------------------------------------------------------------------------------
E----------------------------------------------------------------------------------------------------

E--------------------------------------------------------------------------------------------------
B-------10-----------10-----8-------------------------5p7-------------------7h10-------------------
G-------------7---------------------444-----6----7-----------444---5--6----------------------------
D--------------------------------------------------------------------------------------------------
A--------------------------------------------------------------------------------------------------
E--------------------------------------------------------------------------------------------------

(El punteo no esta exacto porque nose escucha muy bien en algunas partes,
si es que ustedes pueden saquenlo bien)


Y te propongo que lo pienses dos veces
que te tomes tu tiempo que lo hagamos lento
como Dios hizo al cielo para que sea perfecto


Y si me pides que yo te haga mujer
me pides que sea tu complice eterno
Tu verdugo de niña tu platonico amor

Tu Complice Eterno...
Calificar esta versión:
Aviso: Este fichero es trabajo propio de su transcriptor y representa su interpretación personal de la canción. El material contenido en esta página es para exclusivo uso privado, por lo que se prohibe su reproducción o retransmisión, así como su uso para fines comerciales.
Más versiones de Complice Eterno, Glup!
Complice Eterno
acordes
Complice Eterno
tablatura
Descubre más canciones de Glup!