Cinco Minutos, Gloria Trevi (tablatura)

Autor: saul hiuston | 22573 visualizaciones

Guitarra solo
e) ------------------------------------77--88--8h10—8r8--
b) ------11b-8------------88--1010-----------------------
g) ---7---------7r7------77-------------------------------
d) -------------------------------------------------------
a) -------------------------------------------------------
E) -------------------------------------------------------

e)-888—1010--1212--1414--1515--17h19---19s17-15s17-
b) -------------------------------------------------------------------
g) --------------------------------------------------------------------

e) -17s19s17-15h17---r17s19s17-15s17-h19---19-17----------------------
b) -------------------------------------------------------------------
g)---------------------------------------------------------------------
fue lo maximo que aguante y masturvate compadre cuando la toque
ba asia ti shalero puto
Calificar esta versión:
Aviso: Este fichero es trabajo propio de su transcriptor y representa su interpretación personal de la canción. El material contenido en esta página es para exclusivo uso privado, por lo que se prohibe su reproducción o retransmisión, así como su uso para fines comerciales.
Más versiones de Cinco Minutos, Gloria Trevi
Cinco Minutos
acordes
Cinco Minutos
tablatura
Descubre más canciones de Gloria Trevi