La Calle Es Su Lugar, Git (tablatura)

Autor: Anónimo | 47358 visualizaciones



Introducción:

(1)Guitarra
-1|-------------------------|------------------------|
-2|------3-2---------5-----7|-----3-2---------5-----7|
-3|----4-------0---4-----6--|---4-------0---4-----6--|
-4|--4-------4---2-----4----|-4-------4---2-----4----|
-5|-------------------------|------------------------|
-6|-------------------------|------------------------|

(2) Bajo
1/--------------------------|------------------------|
2/--------------------------|------------------------|
3/--------------------------|------------------------|
4/----77---55----00---22----|----77---55----00---22--|

Parte I

solamente el bajo(2)
1/-----------------------------------|
2/-----------------------------------|
3/-----------------------------------|
4/--------77--------55----00---22----|

Ella es amiga de un pordiosero

1/-----------------------------------|
2/-----------------------------------|
3/-----------------------------------|
4/--------77--------55----00---22----|

que toma anfetas cuando esta mal

(sigue igual el bajo (2))
si su cuna fue un triste agujero
cual es la culpa que debe pagar

guitarra (1)
Bajo (2)
igual a la introducción

(2)
nadie le dijo que venía primero
ni a que telefono contestar
gente sucia encontró en su ruta
ya hierro y fuego aprendió a jugar

     LA (bajo en LA)
La calle es su lugar
     SIm (bajo en SI)
ella sabe bien
     LA
no va  avolver atrás, 
      SIm         DO#m         RE
ni por uno, ni por 20, ni por 100

Guitarra (1)
Bajo (2)

bajo en (2)
no no me hablen de la....
o de la busqueda del placer..

LA
La calle es su lugar....

Coro:
(el bajo marca la nota de la guitarra)
SIm  SOL  SIm             LA
Ana, Ana, Ana, puedes ser feliz igual

acordes usados:
      SIm     DO#m      SOL       LA       RE: normal
 1|--2--------4-------3----------0-----------|
-2|---3--------5------3----------5-----------|
-3|----4--------6-----3--4---------5---------|
-4|-----4-------6-----3----5---------7-------|
-5|-----x-------x-----3----5---------0-------|
-6|-----x-------x-----3----------------------|


Solo guitarra:

-------------19---------|---------------------------||
----19----17----19----19|-----5-----5------5-----5--||-
-------19----------19---|-5-6---5-6----5-6---5-6----||
------------------------|---------------------------||
------------------------|---------------------------||-
bajo: 77-55-00-22-------|-55555555555555555555555---||

--5---------10-12-10-9-10-12-10-9|----------19------||
---5-10-12-----------------------|-19----17----19-19||
---------------------------------|----19--------19--||
---------------------------------|------------------||
---------------------------------|------------------||
-5555555555555555555555555555555-|77-55-00-22-------||

LA
La calle es su lugar........

Coro:

Fin:

Bajo igual que en (2)





Calificar esta versión:
Aviso: Este fichero es trabajo propio de su transcriptor y representa su interpretación personal de la canción. El material contenido en esta página es para exclusivo uso privado, por lo que se prohibe su reproducción o retransmisión, así como su uso para fines comerciales.
Más versiones de La Calle Es Su Lugar, Git
La Calle Es Su Lugar
acordes
La Calle Es Su Lugar
tablatura
Descubre más canciones de Git