Es Por Amor, Git (tablatura)

Autor: pablox98 | 45806 visualizaciones



Intro:

e ---------------------------------------------------
b -/-13--13-13-13-13-13-13-/-11-11--11-11--11/-(13)--
g -/-12--12-12-12-12-12-12-/-10-10--10-10--10/-(12)-- x8
d ---------------------------------------------------
a ---------------------------------------------------
e ---------------------------------------------------

Estrfa 1: sin guitarra.

Es por amor

que al mudo yo le hago frente

y por amor

si caigo me levanto siempre

y al costado del camino

veo ángeles caídos

     Cadd9                   A#
e ---------------------------------------------------
b -/-13--13-13-13-13-13-13-/-11-11--11-11--11/-(13)--
g -/-12--12-12-12-12-12-12-/-10-10--10-10--10/-(12)-- x2
d ---------------------------------------------------
a ---------------------------------------------------
e ---------------------------------------------------


Estrfa 2:

         C
Es por amor
        A#
Que nunca boy a abandonarte
        C
Y por amor
   A#                   C   A#
Espero lo que vas a darme
         C              A#   C   A#
Y al costado del camino
          C          A#   C  A#
Ve,veo ángeles caídos



Hay una fiesta

Y es esta noche

Baila conmigo

Así te pido dame

Bajo: (estrofa)
G|--------------------------------------------------
D|--------------------------------------------------
A|-3---0---3---0-3-1-0-1------3---0---3---0-3-1-0-1-
E|---3---3---3------------------3---3---3-----------

(coro)
G|------------------------------------
D|------------------------------------
A|------------------------------------
E|--1-1-1-1-1-1-1-1-1-1-1-1-1-1-1-1-1-

G|--------------------   
D|--------------------
A|----------8-8-8-6---
E|-/---1--------------





Calificar esta versión:
Aviso: Este fichero es trabajo propio de su transcriptor y representa su interpretación personal de la canción. El material contenido en esta página es para exclusivo uso privado, por lo que se prohibe su reproducción o retransmisión, así como su uso para fines comerciales.
Más versiones de Es Por Amor, Git
Es Por Amor
tablatura
Es Por Amor
bajo
Descubre más canciones de Git