Que Haces Tú?, Gianluca Grignani (tablatura) (ver 2)

Autor: Anónimo | 45002 visualizaciones

Hola a todos!!!

Aquí está la transcipción completa (no sé si del todo correcta)
de esta excelente rola de este italiano. Ojalá le guste y...
qué la disfruten!!!


Intro:
                   G1                       C             C7
                       
E--------------------------------------|--0-----|-0-----------------|
B--------3------------------3----------|----1---|---3---------------|
G------0-----0---0--------0-----0---0--|------0-|-----0-------0-----|
D----4---------4--------4---------4----|--------|-----------2----2--|
A---------------------2----------------|--------|---------3---------|
E--3-----------------------------------|--------|-------------------|

               Am                G

E-------0-------3-------------|-----|
B---------1---1---1------1----|-----|
G-----------2----------2---2--|-----|
D----2------------------------|-----|
A--0-----------------0--------|-----|
E-----------------------------|--0--|



Verso 1:

G                             Am
Cuántas veces ya yo mismo he dicho,
 D                          G    G-F#-Em
que lo dejo todo y que me iría.
 Em                       C    Am
Debe haber algún maldito sitio 
                         D
con un cielo y una casa mía.

G                                 Am
Grandes héroes, gran poder que importan,
 D                           G      G     F# Em
luego no hay coraje, no hay valor. (o no se ve)
                            C    D
Sabes que llegar no cuesta tanto,
                      G
lo difícil es permanecer.


Coro:

            C                                 G
¿Qué haces tú? para mantenerte en pie sin decaer.
            C                              G
¿Qué haces tú? para discutir y no desfallecer.
         Am                         C
Yo que muero en el intento, sabes que...
         D                             
soy nervioso, estoy ansioso pero bien.


Intro


Verso 2: Igual al Verso 1

Cuántas veces ya yo mismo he dicho,
ahora apago todo y sigo aquí.

Hoy no me levanto de la cama,
hasta el viernes yo me quedo aquí.

Para cada decisión suprema,
una calle larga, estrecha (caminaré),
tan empinada y tan extrema,
me la encuentro de frente siempre, y tú... 


Coro X 2 


           C                                             G
Qué haces tú?...

e--------------------------------------------------------------------------------------------
B---------------0h1~--1h3-1~----11-11-11-11-11-11-11--11p10p8--------------------------------
G-------------------------------------------------------------10-10h12~----------------------
D------------------------------------------------------------------------12p10---------------
A------------------------------------------------------------------------------10-10h12-10~~-
E--------------------------------------------------------------------------------------------

         Am                         C
Yo que muero en el intento, sabes que...
         D                             
soy nervioso, estoy ansioso pero bien.


           C                                               G                         C   
Qué haces tú?...

e--------------------------------------------------------------------------------------------
B-------------------11h13-13-13-13-13-13~-13-11-10-11h13~--8~~-------------------------------
G--------------------------------------------------------------------------------------------
D-----------------------------------------------------------------10p8-----------------------
A----------------------------------------------------------------------10~~------------------
E--------------------------------------------------------------------------------------------


                                                    G                                     C

e-----12~----12~----12~----12~----12~----12--12s7~-----------------------------8-7-----------
B--------------------------------------------------------------------7h8-8~--8-----8-3~-7h8~-
G--12-----12------12-----12-----12-----12-12-12s7~-------------------------------------------
D---------------------------------------------------9----9-----------------------------------
A-----------------------------------------------------10---10~-------------------------------
E--------------------------------------------------------------------------------------------


                                    

e--------------------------------------------------------------------------------------------
B--11-11-11-11-11~--11-11p10p8h10-8-8~~------------------------------------------------------
G--------------------------------------------------------------------------------------------
D--------------------------------------------------------------------------------------------
A--------------------------------------------------------------------------------------------
E--------------------------------------------------------------------------------------------



Acordes:

   G1

E--0--|
B--3--|
G--0--|
D--4--|
A--2--|
E--3--|



Dudas y correcciones a mi E-mail.


Esta canción va dedicada para Jennifer M. Arias, hasta Catacamas, Olancho y quiero decirle que .
la quiero mucho, mucho y que siempre estará en mi corazón!!!
Calificar esta versión:
Aviso: Este fichero es trabajo propio de su transcriptor y representa su interpretación personal de la canción. El material contenido en esta página es para exclusivo uso privado, por lo que se prohibe su reproducción o retransmisión, así como su uso para fines comerciales.
Más versiones de Que Haces Tú?, Gianluca Grignani
Que Haces Tú?
acordes
Que Haces Tú?
tablatura
Que Haces Tú? (ver 2)
tablatura
Descubre más canciones de Gianluca Grignani