Mi Historia Entre Tus Dedos, Gianluca Grignani (tablatura)

Autor: Anónimo | 27011 visualizaciones

Estas es una correción de todas las anteriores transcripciones,
incluí las tablaturas para el coro
la verdad es que suena idéntica.
sobre el rasgueo, solo hay que escuchar la canción.
Espero que les agrade



INTRO:    Dm7  -  G  -  Fmaj7-Am -  G

 Dm7            G              Cmaj7-Em                  Fmaj7-Am
    Yo pienso que, no son tan inútiles las noches que te di
 Dm7               G                Cmaj7-Em                   Fmaj7-Am
    Te marchas y qué, yo ni intento discutírtelo, lo sabes y lo sé
 Dm7                       G       Cmaj7-Em                   Fmaj7-Am
Al menos quédate sólo esta noche, prometo no tocarte ¿Estás segura?
 Dm7                           G                     Cmaj7-Em
Tal vez es que me voy sintiendo solo.Porque conozco esa sonrisa,
          Fmaj7
tan definitiva
                  Cmaj7-Em              Fmaj7-Am
Tu sonrisa que a mi mismo me abrió tu paraíso.

 Dm7         G            Cmaj7-Em           Fmaj7-Am
   Se dice que, con cada hombre hay una como tú
 Dm7            G                     Cmaj7-Em                   Fmaj7-Am
   Pero mi sitio luego, lo ocuparás con alguno,Igual que yo,o mejor,lo dudo
 Dm7                           G          Cmaj7-Em                Fmaj7-Am
Por que esta vez agachas la mirada, me pides que sigamos siendo amigos
 Dm7                      G                    Cmaj7-Em           Fmaj7
Amigos para qué, maldita sea, A un amigo lo perdono, pero a ti te amo
                  Cmaj7-Em               Fmaj7-Am
Pueden parecer banales, mis instintos naturales.


CORO
         C                          C
Hay una cosa que yo no te he dicho aún
                                e |-------0-----|---0---|
                                B |-----1---1---|-3---3-|
                                G |---0-------0-|-------|
                                D |-2-----------|-------|
                                A |-------------|-------|
                                E |-------------|-------|
            G                          G
Que mis problemas sabes que se llaman tú
                                e |-------7-----|---0-1-|
                                B |-----8---8---|-3-----|
                                G |---7-------7-|-------|
                                D |-9-----------|-------|
                                A |-------------|-------|
                                E |-------------|-------|
          Bb                       Am
Sólo por eso tú me ves hacerme el duro
        e |-------6-----|-----|--------8------|---0-|
        B |-----6---6---|-----|-----10---10---|-3---|
        G |---7-------7-|-----|---9---------9-|-----|
        D |-8-----------|-----|-0-------------|-----|
        A |-------------|-----|---------------|-----|
        E |-------------|-----|---------------|-----|

        F                         G
Para sentirme un poquito más   seguro.
e |-------1-----|-------1-----|-------3---5-3-|
B |-----1---1---|-----1---1---|-----3---3-----|
G |---2-------2-|---2-------2-|---4-----------|
D |-3-----------|-3-----------|-5-------------|
A |-------------|-------------|---------------|
E |-------------|-------------|---------------|

          C                            C
Y si no quieres ni decir en que he fallado
                                e |-------0-----|---0---|
                                B |-----1---1---|-3---3-|
                                G |---0-------0-|-------|
                                D |-2-----------|-------|
                                A |-------------|-------|
                                E |-------------|-------|
          G                           G
Recuerda que también a ti te he perdonado
                                e |-------7-----|---0-1-|
                                B |-----8---8---|-3-----|
                                G |---7-------7-|-------|
                                D |-9-----------|-------|
                                A |-------------|-------|
                                E |-------------|-------|
            Bb                           Am
Y en cambio tú, dices lo siento, no te quiero
        e |-------6-----|-----|--------8------|---0-|
        B |-----6---6---|-----|-----10---10---|-3---|
        G |---7-------7-|-----|---9---------9-|-----|
        D |-8-----------|-----|-0-------------|-----|
        A |-------------|-----|---------------|-----|
        E |-------------|-----|---------------|-----|

        F               E7               Am
Y te me vas con esta historia entre tus dedos.
e |-------1-----|-------0-----|-------0-----|---------0-|
B |-----1---1---|-----0---0---|-----1---1---|-----1-3---|
G |---2-------2-|---1-------1-|---2-------2-|---2-------|
D |-3-----------|-0-----------|-2-----------|-2---------|
A |-------------|-------------|-------------|-----------|
E |-------------|-------------|-------------|-----------|


 Dm7          G                Cmaj7-Em            Fmaj7-Am
   Qué vas a hacer, busca una excusa, y luego márchate
 Dm7          G                 Cmaj7-Em              Fmaj7-Am
   Porque de mí, no debieras preocuparte, no debes provocarme
    Dm7                           G          Cmaj7-Em             Fmaj7-Am
Que yo te escribiré un par de canciones,Tratando de ocultar mis emociones
    Dm7                      G                         Cmaj7-Em
Pensando,pero poco en las palabras,te hablaré de la sonrisa,
            Fmaj7
tan definitiva
                   Cmaj7-Em               Fmaj7-Am
Tú sonrisa que a mi mismo, me abrió tu paraíso.

CORO

 Dm7         G  Cmaj7-Em    Fmaj7-Am
Naaa na na na, Naaa na na na.
 Dm7         G  Cmaj7-Em    Fmaj7-Am
Naaa na na na, Naaa na na na.

cualquier duda o sugerencia a mi correo
ramiro-al@hotmail.com
Gracias
Calificar esta versión:
Aviso: Este fichero es trabajo propio de su transcriptor y representa su interpretación personal de la canción. El material contenido en esta página es para exclusivo uso privado, por lo que se prohibe su reproducción o retransmisión, así como su uso para fines comerciales.