Nueva Nación, Generación 12 (tablatura)

Autor: Anónimo | 24148 visualizaciones

GUITARRA 1
INTRO......AMENNN-------aaaaa....

G---------------------------------------------
D-2-2-0-2-0-2-0--2-2-0-2-0-2-0--0-0---0---0---
A-----------------------------------3---3---3-
E---------------------------------------------


G-----0---------------
D-2-2---2-0---0-------
A-----------3---------
E---------------------..........Lo anterior es el intro y
                       las estrofas de la 1ra guitarra...
                       ....solo se repite varias veces...


la 2da guitarra entra(si escuchamos bien) haciendo esto...en varios
tramos de la kncion.........

e----8-7-8-5----8-7-8-5---8-7-8-7---11-10-11-8
B--5----------5---------5---------8-----------
G---------------------------------------------...dos veces
                                            cada vez q entra

COROS.....

e..10-8-10--10-8-10--12--10-8-10--10-8-10--12--10-8-10-10-8-10--
B--10-8-10--10-8-10--12--10-8-10--10-8-10--12--10-8-10-10-8-10--
G---------------------------------------------------------------

e--12/13--13/15--15--13---GUITARRA 2]
B--12/13--13/15--15--13---GUITARRA 1]...LAS DOS GUITAR AL TIEMPO
G---------------------------------X2 EN EL 1ER CORO Y X4 EN EL 2DO
                                             CORO


SOLO........

e--10-8-10--10-8-10--12--10-8-10--10-8-10--12--10-8-10-10-8-10--
B-----------------------------------------------------------------

e--12/13--13/15--15--13--10-8-10--12-10-8-10--10-8-10--12/13-13/15--
B-----------------------------------------------------------------

e--15/17--17/19--19/21---
B--------------------------SI NO PUEDEN HACER EL SLIDE(/)simplemente
                           tok las notas hacia arriba y abajo...
                           (12,13,15,17,19 Y 21)...


TODO LO ANTERIOR LO HACEN 2 GUITARRAS ELECTRICAS....LA BASE LO
HACE UNA ACUSTICA CON LAS NOTAS (Am..C..G Y Dm)para las estrofas..
              y para los coros(C..G..Am y F)--ESO ES TODO

ESPERO LES SEA DE BENDICION ES UNA CANCION MUY BAKANA
...CUALÑKIER COSA INQUIETUD ETC..MI CORREO ES
edwardrocket@hotmail.com.....
Calificar esta versión:
Aviso: Este fichero es trabajo propio de su transcriptor y representa su interpretación personal de la canción. El material contenido en esta página es para exclusivo uso privado, por lo que se prohibe su reproducción o retransmisión, así como su uso para fines comerciales.
Más versiones de Nueva Nación, Generación 12
Nueva Nación
acordes
Nueva Nación
tablatura
Descubre más canciones de Generación 12