Me Apasionas, Generación 12 (tablatura)

Autor: Anónimo | 23216 visualizaciones

Intro - Sobre la nota B-Si / Deben escuchar la canción para acompañar
 LA velocidad

E--5-4---5-4---4---5-4---5-4---4-----------------
B------4-----4---4-----4-----4---4---------------
G------------------------------------------------
D------------------------------------------------
A------------------------------------------------
E------------------------------------------------
Puente-Solo:de la guitarra eléctrica, por si a alguien le gustaría
(Cortesía)No olviden de escuchar la canción para acompañar la velocidad

      B           F#/A#        G#m           E

E--14-14-14-14-------------11-11-11-11------------------------ X3
B--------------12-12-12-12-------------11-11-11-12-12---------
G-------------------------------------------------------------
D-------------------------------------------------------------
A-------------------------------------------------------------
E-------------------------------------------------------------
         E
E-------------------------------------------------------------
B--1112-12-12-11-11-11-12-------------------------------------
G-------------------------------------------------------------
D-------------------------------------------------------------
A-------------------------------------------------------------
E-------------------------------------------------------------

(ESTROFA 1)
B
   Me llenas con un gozo nuevo
F#
   Una pasión dentro de mí
G#m
   Tu espíritu me está llevando
         E
   a cantar y a vivir para tí
(ESTROFA 2)
B
   Cantaré de lo que has hecho
F#
   proclamaré tu salvación
G#m
   en mi interior corre tu fuego
       E
   recibe señor mi canción

(PRE CORO)
F#           G#m
  Con todas      mi fuerzas
E
  te alabaré, te cantaré
F#           G#m
  Mi vida        te entrego
E
  yo quiero vivir por tíi

(CORO) - Mismas notas para Intro & Puente

  B
//Tú me apasionas DIOS,
      F#
  por siempre te serviré.
    G#m
  llenaste mi vida
         E
  de un gozo nuevo y hoy lo siento// Bis

*Para volver a (ESTOFA): F#-G#m-F#-E

(Estrofa 1, 2)
(PRE CORO)
(CORO)Bis
Puente
(PRE CORO)
(CORO)

Espero les haya servido a todos, esta es mi primera
 canción así que cualquier error a corregir quien quiera
 y les animo a que sigan buscando canciones que alaban al
 Señor Jesús porque suya es la Gloria y la honra de todo
y lo mejor que podemos hacer con nuestros talentos es ofrecer
a él con alabanza y adoración
Que DIOs les bendiga a todos :)
Calificar esta versión:
Aviso: Este fichero es trabajo propio de su transcriptor y representa su interpretación personal de la canción. El material contenido en esta página es para exclusivo uso privado, por lo que se prohibe su reproducción o retransmisión, así como su uso para fines comerciales.
Más versiones de Me Apasionas, Generación 12
Me Apasionas
acordes
Me Apasionas (ver 2)
acordes
Me Apasionas
tablatura
Descubre más canciones de Generación 12