Llueve, Generación 12 (tablatura)

Autor: Anónimo | 39144 visualizaciones

Esta es la versión de delirius y G12.
Los números q están en paréntesis indican el numero de veces
q se toca. la introducción va con pal mut(PM) hasta donde
terminan los puntos, y se toca con D al aire por eso están
los ceros.

Intro:

e------------------------------------------------
B------------------------------------------------
G--9-11-11--9-11-11--9-11-11--9-11-11-12-12-12---
D--0--0--0--0--0--0--0--0--0--0--0--0--0--0--0---
A------------------------------------------------
E------------------------------------------------
 PM. . . . . . . . . . . . . . . . . . . . . .
e------------------------------------------------
B------------------------------------------------
G--9-11-11--9-11-11--9-11-11--9-11-11-12-11-9----
D--0--0--0--0--0--0--0--0--0--0--0--0--0--0--0---
A------------------------------------------------
E------------------------------------------------
 PM. . . . . . . . . . . . . . . . . . . . . .
e---------------------------------
B--10(8)-8(8)-7(8)-8(3)---8-7p5---
G---7(8)-7(8)-7(8)-7(3)-----------
D---------------------------------
A---------------------------------
E---------------------------------
 PM. . . . . . . . . .


Estrofa:
En las estrofa se hacen estas notas Bm A G


...Hoy va lloverrrrrrrr
            e------------------------------------------------
            B------------------------------------------------
            G--9-11-11--9-11-11--9-11-11--9-11-11-12-12-12---
            D--0--0--0--0--0--0--0--0--0--0--0--0--0--0--0---
            A------------------------------------------------
            E------------------------------------------------
             PM. . . . . . . . . . . . . . . . . . . . . .

            e------------------------------------------------
            B------------------------------------------------
            G--9-11-11--9-11-11--9-11-11--9-11-11-12-11-9----
            D--0--0--0--0--0--0--0--0--0--0--0--0--0--0--0---
            A------------------------------------------------
            E------------------------------------------------
            PM. . . . . . . . . aca se quita la mano y suena
            la guitarra sin PM


Pre coro:
Deseamos oi tu    lluvia Dios inundanos hoy con tu fuego
e-----------------------------------------------------------
B---10-10-10-10-----8-8-8-8-----7-7-7-7-----8-8-----8-7p5---
G----7--7--7--7-----7-7-7-7-----7-7-7-7-----7-7-------------
D-----------------------------------------------------------
A-----------------------------------------------------------
E-----------------------------------------------------------

Coro:
las notas son D G
se hace lo mismo que en la intro.


Se repite la canción.


Puente:

C    B     D   C#   F    E
AbRE oi   Abra oi   AbRE oi

los cielos
          e-------------------------------
          B-------------------------------
          G---9-7h9s11-9h11-11b-11p9h11---
          D-------------------------------
          A-------------------------------
          E-------------------------------


   Oi te doi   oi te  doi     oi te doi
e-----------------------------------------
B-----------------------------------------
G--9--9--7----s11-11-9s7s6---s14-14-12----
D-----------------------------------------
A-----------------------------------------
E-----------------------------------------

MI ser
e-----------------
B------8----------
G------7----------    X8
D------5----------
A-----------------
E-----------------


Llueeeeeve (solo voces) todas las naciones cantan

Llueve  puedes escuchar la tierra
e------------------------------------------
B-10(8)-12(8)-14(8)-15-15-15-15-15-14-12---
G-10(8)-10(8)------------------------------
D------------------------------------------
PM. . . aquí se suelta

Llueve estoi sediento pero canto
Llueve llueve oi.
Bueno esta es la canción espero q les sirva...perdonen los
errores esta es mi primera colaboración... les mando un saludo
desde Guatemala att. Niño de la guitarra...
cualquier duda brayan-a-v-@hotmail.com.
Calificar esta versión:
Aviso: Este fichero es trabajo propio de su transcriptor y representa su interpretación personal de la canción. El material contenido en esta página es para exclusivo uso privado, por lo que se prohibe su reproducción o retransmisión, así como su uso para fines comerciales.
Más versiones de Llueve, Generación 12
Llueve
acordes
Llueve
tablatura
Descubre más canciones de Generación 12