En Tus Brazos, Generación 12 (tablatura)

Autor: Anónimo | 27795 visualizaciones

Primer punteo:
esto va despues del piano del Intro:

e:----------------------------------------------------------------------
B:-/11-10/6--11-10/15--------------------------------------------------
G:----------------------------------------------------------------------
D:----------------------------------------------------------------------
A:----------------------------------------------------------------------
E:----------------------------------------------------------------------

Solo 1:

Este es el solo cn efecto Clean

e:----------------------------------------------------------------------
B:-11-11-11-11-11-11-11/10-10-10-10-10/6-6/8-6/8--6-6/8-6---------------
G:--------------------------------------------------------87-----------
D:------------------------------------------------------------8---------
A:----------------------------------------------------------------------
E:----------------------------------------------------------------------

e:----------------------------------------------------------------------
B:-11-11-11-11/13-13-10-10h11-10----------------------------------------
G:-------------------------------10-10-8-8-7-7--7h8-7----7--------------
D:----------------------------------------------------10----------------
A:----------------------------------------------------------------------
E:----------------------------------------------------------------------

e:----------------------------------------------------------------------
B:-----------------------------------10h11-10-------13------------------
G:-7-7h8--------------------------10----------12-10---------------------
D:-------10-8-8--7h8-7--------------------------------------------------
A:---------------------10-8-8h10----------------------------------------
E:----------------------------------------------------------------------

e:----------------------------------------------------------------------
B:----10h11-10----------------------------------------------------------
G:-10----------12-10h12-12----------------------------------------------
D:-------------------------12/13-13-------------------------------------
A:----------------------------------------------------------------------
E:----------------------------------------------------------------------

Solo 2:

Esto ya va con Efecto

e:----------------------------------------------------------------------
B:----------------------------------------------------------------------
G:-12-12-12/17-17-17--12-12-12/19-19--12-12-12/17-17-12-12-12-15-14-----
D:------------------------------------------------------------------15--
A:----------------------------------------------------------------------
E:----------------------------------------------------------------------


e:-----------------------------------------13--------13--------13-------
B:-------------------8-8-8/15-15-13/15-15b----15-15b----15-15b----15----
G:-12-12-12/17-17-17----------------------------------------------------
D:----------------------------------------------------------------------
A:----------------------------------------------------------------------
E:----------------------------------------------------------------------


e:-13/18-18-18-17----17----18-17----17----18-17-------------------------
B:----------------18----18-------18----18-------18-18/20-20-------------
G:----------------------------------------------------------------------
D:----------------------------------------------------------------------
A:----------------------------------------------------------------------
E:----------------------------------------------------------------------

e:-13/18-18-18-17----17----18-17----------------------------------------
B:----------------18----18-------18--18-18-15-15-20-20------------------
G:-----------------------------------------------------13-13-13/15-----
D:----------------------------------------------------------------------
A:----------------------------------------------------------------------
E:----------------------------------------------------------------------

Mi primer trabajo, al fin el tab SSO!!

cualquiero correccion, HAGANLA!!(sta casi perfecta)
Calificar esta versión:
Aviso: Este fichero es trabajo propio de su transcriptor y representa su interpretación personal de la canción. El material contenido en esta página es para exclusivo uso privado, por lo que se prohibe su reproducción o retransmisión, así como su uso para fines comerciales.
Más versiones de En Tus Brazos, Generación 12
En Tus Brazos
acordes
En Tus Brazos (ver 2)
acordes
En Tus Brazos
tablatura
En Tus Brazos (ver 2)
tablatura
Descubre más canciones de Generación 12