Dios Incomparable, Generacion 12 (acordes)

Autor: emarnow | 45505 visualizaciones

befsosfsos-asosgsosm
Dios incomparable

Intro
e--------------------------------6----
B----4--4--2---2---5----5----7-----7--
G-------------------------------------
D-------------------------------------
A--2---2--1--1-------------7---7------
E----------------4----4---------------
B          F#        G#m               E
Dios de mi coraz?n en ti encontr? mi salvaci?n??
e--------------------------------6----
B----4--4--2---2---5----5----7-----7--
G-------------------------------------
D-------------------------------------
A--2---2--1--1-------------7---7------
E----------------4----4---------------
B         F#      G#m           E
Tu gloria y majestad Quiero Siempre contemplar
e--------------------------------6----
B----4--4--2---2---5----5----7-----7--
G-------------------------------------
D-------------------------------------
A--2---2--1--1-------------7---7------
E----------------4----4---------------
B        F#      G#m   E
T? eres mi adoraci?n Y mi eterna canci?n
e-------------------------
B-12-12-12h14-11-12-------
G-------------------11-13-
D-------------------------
A-------------------------
E-------------------------
B    F#      G#m        E
Todo mi interior Es Cautivado por tu amor
e---------------------------------------
B-11-12-14-14\16-11----------------------
G-------------------11-1313131313131313-
D---------------------------------------
A---------------------------------------
E---------------------------------------
  CORO:
        B         F#/A#       G#m
                  Eres Dios eterno Solo t? eres bueno
e----------------------------
B----------------------------
G-44444-888-6666\9999-88888--
D----------------------------
A----------------------------
E----------------------------
         E
Dios incomparable eres t?
e-------------------------------
B-------------------------------
G-111111111111-9999999----------
D-------------------------------
A-------------------------------
E-------------------------------
       B           F#
                    Nunca me separare
e-----------------
B-----------------
G-44444-888-6666\9
D-----------------
A-----------------
E-----------------
           G#m         E
   de tu gran amor   Eres mi se?or mi salvador
e-------------------------------------
B-------------------------------------
G999-88888----111111111111-9999999----
D-------------------------------------
A-------------------------------------
E-------------------------------------
    B     F#      G#m       E
    Aleluya          aleluya
e-----------------------------------------
B-5-444-4\2-222-222\4-444-4h5-555-5\7-7\5-
G----------------------------
D----------------------------
A----------------------------
E----------------------------
  B     F#      G#m       E
  Aleluya          aleluya
e---------------------------7-6-----
B-444-4\2-222-222\4-444-4\5-----5\4-
G----------------------------
D----------------------------
A----------------------------
E----------------------------
  B     F#      G#m       E
  Aleluya          aleluya
e-------------------------------------
B-444-4\2-222-222\4-444-4h5-555-5-7-5-
G----------------------------
D----------------------------
A----------------------------
E----------------------------
  B     F#      G#m       E
  Aleluya          aleluya
e---------------------------------------
B-444-4\2-222-222h4-444-4h5-555-5\7-7-5-
G----------------------------
D----------------------------
A----------------------------
E----------------------------
  B     F#      G#m       E
  Aleluya          aleluya
e-------------------------------7-6-----
B-444-4\2-222-222\4-444-4h5-555-----5h4-
G----------------------------
D----------------------------
A----------------------------
E----------------------------
  B     F#      G#m       E
  Aleluya          aleluya
e----------------------------------------
B-444-4\2-222-222\4-444-4h5-555-5\7-7-7\5
G----------------------------
D----------------------------
A----------------------------
E----------------------------
  B     F#      G#m       E
  Aleluya          aleluya
e---------------------------------------
B-444-4\2-222-222\4-444-4h5-555-5-7-7-5-
G----------------------------
D----------------------------
A----------------------------
E----------------------------
  B     F#      G#m       E
  Aleluya          aleluya
e----------------------------
B-444-4\2-222-222\4-444-4h5-555-
G-------------------------------
D----------------------------
A----------------------------
E----------------------------

Comentarios del colaborador: Hola esta el mi primer tab Espero que lo entiendan y ademas esta en la versi�n original XD........

Calificar esta versión:
Aviso: Este fichero es trabajo propio de su transcriptor y representa su interpretación personal de la canción. El material contenido en esta página es para exclusivo uso privado, por lo que se prohibe su reproducción o retransmisión, así como su uso para fines comerciales.
Más versiones de Dios Incomparable, Generacion 12
Dios Incomparable
acordes
Dios Incomparable
tablatura
Descubre más canciones de Generacion 12