Cómo Has Hecho?, Gaytan Castro (tablatura) (ver 2)

Autor: Anónimo | 17669 visualizaciones

INTRO

--------------------------------------------------------------
------3------------------3---------------------3--------------
--------------2-------------------2----------------------2----
-0-0----------------0-0-------------------0-0-----------------
---------0-0-----------------0-0--------------------0-0-------
--------------------------------------------------------------


DE AHI VIENE LOS AREPGIOS...

-------0-----2-----2-----2-----3-----2-----2-----2-----0-----
-3---3---3-----3-----3-----3-----3-----3-----3-----3-----3---
---2-------2-----2-----2-----2-----2-----2-----2-----2-----2-
-0-----------------------------------------------------------
-------------------------------------------------------------
-------------------------------------------------------------

-0-----2-----2-----3-----2-----0-----2-----3-----2-----
---3-----3-----3-----3-----3-----3-----3-----3-----3---
-----2-----2-----2-----2-----2-----2-----2-----2-----2-
-------------------------------------------------------
-------------------------------------------------------
-------------------------------------------------------

-0-----2-----3-----2-----0-----2--------------------
---3-----3-----3-----3-----3-----3------------------
-----2-----2-----2-----2-----2-----2----------------
----------------------------------------------------
----------------------------------------------------
----------------------------------------------------

DE AHI VIENE EL RASGEO EN HUAYNO...

   D                          A
Debí saber que al amarte yo me perdia
    G                             D A
debi saber que tu mundo ya no era mio
   D                                A
es tan lejano aquel dia en que me decias
     G                               D    A
ya no soy niña no juego con mis sentimientos.

CORO
  D                   A
¿Cómo has hecho para amarte asi?
  G                      D     A
¿Cómo has hecho que te quiera así?
  D                    A
¿Cómo has hecho, me mataste amor?
  G                D        A
¿Cómo has hecho? ¿Cómo has hecho?

FUGA

D                                F#m
Al saber que era ajeno a mis sentimientos
G                                        D  A
de este hombre tan torpe que has hecho en mi

LA LA LA LA LA LA LA LA LA LA
D     F#m    G         A

ESTA CANCION VA DEDICADA A TODAS LAS CHIKAS K ALGUNA VES
JUGARON MAL CON NOSOTROS LOS HOMBRES
Calificar esta versión:
Aviso: Este fichero es trabajo propio de su transcriptor y representa su interpretación personal de la canción. El material contenido en esta página es para exclusivo uso privado, por lo que se prohibe su reproducción o retransmisión, así como su uso para fines comerciales.
Más versiones de Cómo Has Hecho?, Gaytan Castro
Cómo Has Hecho?
acordes
Cómo Has Hecho?
tablatura
Cómo Has Hecho? (ver 2)
tablatura
Descubre más canciones de Gaytan Castro