Un Lugar, Fuera De Tiempo (tablatura)

Autor: Anónimo | 18095 visualizaciones

(Ganadores de la "Batalla de las Bandas - Pepsi")

Bueno, como siempre hay que apoyar al talento nacional, aca, presento una
versión con tablatura, para que la saquen ps...
Cualquier cosa, escriben a Fergusong13@gmail.com --> Pepe --> A_A

Un dato, para mí, esta canción sale mejor si la tocan dos...

INTRO

    A       Amaj7       D         Dm
E---0---------0---------0---------0---------
 ---0---------0---------0---------0---------
 ---2---------2---------0---------0---------
 ---2---2-2-2-1---1-1-1-2---2-2-2-2---2-2-2-
 ---2-22---2--2-22---2--3-33---3--3-33---3--
e---0----0----0----0----2----2----1---1~3--- (Todo se repite)


***Aca entra el rasgueo acompañado del punteo...

    A         Cm      D         Dm
E---0-----------------------------------|
 ---0-----------------------------------
 ---2-----------------------------------
 ---2--9--------------------------------
 ---2-------------------10--------------
e---0----9-9--7--7/9-7------------------


A         Cm      D         Dm
E---0-----------------------------------
 ---0-----------------------------------
 ---2-----------------------------------
 ---2--9--------------------------------
 ---2-------------------11--------------
e---0----9-9~~10--10/11-----------------


A          Cm              D          Dm
En algun lugar de este planeta estas
A          Cm              D
y no puedo soportar esta soledad
     Dm                          A
esta soledad que hay en mi interior
               Cm           D         Dm
se que esta canción te puede llamar, Oooo
A            Cm                A      E
si puediera cantar estarías aqui.

CORO:
      A     Cm
Un lugar lejos
        D          Dm
de este pobre corazon
        A                Cm
que te extraña, que te extraña
       D          Dm          A
y no quiere separarse de tu voz,
      Cm          D      Dm       A
y te ama, y no entiende que tu ya no.

   Cm  D  Dm
A  Cm  D  Dm

A            Cm            D           Dm
Pero sigo pensando que tu volveras mi amor
A              Cm             D
y no puedo olvidarme de ese gran error
        Dm                     A
de ese gran error que nos separo
               Cm          D          Dm
se que mis disculpas nunca aceptaras, NoOoo
A             Cm               A    E
si puediera cantar estarías aquí

CORO:
      A     Cm
Un lugar lejos
        D          Dm
de este pobre corazon
        A                Cm
que te extraña, que te extraña
       D          Dm          A
y no quiere separarse de tu voz,
      Cm          D      Dm       A
y te ama, y no entiende que tu ya no.

   Cm  D  Dm
A  Cm  D  Dm

CORO... (x 1 vez y con juego de voces)


ESPERO QUE LES GUSTE Y LES SIRVA...
SALUDOS A TODA LA GALAXIA... GGR - Cajamarca - Perú
Calificar esta versión:
Aviso: Este fichero es trabajo propio de su transcriptor y representa su interpretación personal de la canción. El material contenido en esta página es para exclusivo uso privado, por lo que se prohibe su reproducción o retransmisión, así como su uso para fines comerciales.
Más versiones de Un Lugar, Fuera De Tiempo
Un Lugar
acordes
Un Lugar
tablatura
Descubre más canciones de Fuera De Tiempo