Tu Siempre Tu, Franco Simone (tablatura)

Autor: Anónimo | 45113 visualizaciones



Introducción:

1)--3-2-3-5-7-------3-2-3-5-----------6-5-6-8-10---6-5-3-
2)-3---------------3----------5-3---3--------------------
3)-------------------------------------------------------
4)-------------------------------------------------------
5)-------------------------------------------------------
6)-------------------------------------------------------


         FA                 LA#      FA
... Está lloviendo, quieres dar un paseo. . .
. . . . . . . .
. . . . . . . .
. . . . . . . .
      FA                 SOLm          DO7
...el juego más dulce ha vuelto a mi vida

Punteo:

1)-----------------------------------------------------
2)-----------------------------11--10------------------
3)--10--12--14--12--14----7----------12--14--12--10----
4)-----------------------------------------------------
5)-----------------------------------------------------
6)

1)------------------------------------------------
2)--------------------------11--10----------------
3)--10--12--14--12--14----7--------12--14--12--10-
4)------------------------------------------------
5)-------------------------------------------------
6)-------------------------------------------------





1)---------------------------------------------------------------
2)----------------------------------------------13-13-13-13-13-13
3)10-12-10-10-10-9-10-12-10-9-9-7-7--7-15-14-14------------------
4)---------------------------------------------------------------
5)---------------------------------------------------------------
6)---------------------------------------------------------------

          FA         LA#     FA
... y tus ojos me sonríen cansados...
. . . . . . . . . .
. . . . . . . . . .
. . . . . . . . . .
       FA                   SOLm
...yo quién he sido, qué es lo que hecho...
            DO7          FA
...antes de ti , sin tu amor


Clave Americana -------- Clave Universal
C ----------------------------------  DO
D ----------------------------------  Re
E ----------------------------------  Mi
F ----------------------------------  FA
G ---------------------------------- Sol
A ----------------------------------  La
B ----------------------------------- Si

# = acorde sostenido
m = acorde menor

(EJEMPLO: G#m = Sol sostenido menor)

'Hola, soy Rodrigo, El Último Romántico, espero que esta balada
les guste mucho,pues va dedicada con todo mi corazón para
mi polola Andrea. Un saludo y un abrazo fuertes a mis amigos:
Marco, Aarón, JoC, Simón, Laura, Claudia, a mis ex compañeros:
Lord Caoz, Kurochan, Chik Denisse, Pame, Roberto, al Maluto,
al grupo Sweet Revenge y a su vocal-bajista mi primo Jonathan...
cualquier duda sobre la transcripción o preguntas
relacionadas envíamelas a: rodrymicky@hotmail.com'

¡que viva el amor, la ternura y el romanticismo!

'Que el Señor te tenga consigo en la gloria hermanita mía'

             'Que el Señor los Bendiga'
Febrero 11, 2005                        ... El Último Romántico
             =======www.aplicale.tk=======





Calificar esta versión:
Aviso: Este fichero es trabajo propio de su transcriptor y representa su interpretación personal de la canción. El material contenido en esta página es para exclusivo uso privado, por lo que se prohibe su reproducción o retransmisión, así como su uso para fines comerciales.
Más versiones de Tu Siempre Tu, Franco Simone
Tu Siempre Tu
acordes
Tu Siempre Tu
tablatura
Descubre más canciones de Franco Simone