Excavador De Tumbas, Francisca Valenzuela (bajo)

Autor: Anónimo | 23376 visualizaciones



Aquí va mi primera colaboración. Yo no soy bajista asi que puede
perfectamente no estar tan bien, creo que el coro tal vez lo
puedan corregir, pero lo más característico de la canción es
la estrofa y está bien (además del detallito del final del coro).


G|-----------|-------------- Se repite toda la estrofa y se
D|-----------|-------------- toca dos veces para la intro
A|-6----8-9--|--4----6------
E|-----------|----------4---

Excavador de tumbas,
Trae consigo muerte y la suerte al revés,
No ves los pies descalzos y la piel de asfalto,
Solo con la noche, por la noche viene el.

(entra la batería-2 compases como en la estrofa)

Excavador de tumbas,
Trae consigo muerte y la suerte al revés,
No ves los pies descalzos y la piel de asfalto,
Solo con la noche, por la noche viene el.

G|--------------------------  X3
D|--------------------------
A|---6----4-----------2-----
E|--------------4-----------
Y hay uno por cada uno de nosotros


G|--------------------------
D|--------------------------
A|---6---------2------------
E|--------6-----------------
Creo que viene por mí


G|-----------|--------------
D|-----------|--------------
A|-6----8-9--|--4----6------
E|-----------|----------4---


G|-----------|--------------  La segunda estrofa va igual que la primera
D|-----------|--------------
A|-6----8-9--|--4----6------
E|-----------|----------4---

Tumbas con bocas abiertas
El mundo con su boca abierta y fresca,
Ni huellas deja cuando llega y comienza a cavar.

G|--------------------------  X3
D|--------------------------
A|---6----4-----------2-----
E|--------------4-----------
Y hay uno por cada uno de nosotros


G|--------------------------
D|------------------9-8-7-6-
A|---6---------2------------
E|--------6-----------------
Creo que viene por mí     (2 veces)


G|--------------------------
D|--------------------------
A|---6----------------------
E|--------6-----------------
Creo que viene por...


G|-----------|--------------
D|-----------|--------------
A|-6----8-9--|--4----6------
E|-----------|----------4---
Mi...  (4 veces)

G|--------------------------  X4
D|--------------------------
A|---6----4-----------2-----
E|--------------4-----------
Y hay uno por cada uno de nosotros


G|--------------------------  X3
D|--------------------------
A|---6----4-----------2-----
E|--------------4-----------

Excavador de tumbas


G|--------------------------
D|------------------9-8-7-6-
A|---6---------2------------
E|--------6-----------------
Veo viene por mi


G|--------------------------
D|------------------9-8-7-6-
A|---6---------2------------
E|--------6-----------------
No ves que viene por mi


G|--------------------------
D|--------------------------
A|---6----------------------
E|--------6-----------------
Creo que viene por...

[FIN]

Y bueno, ojalá que les sirva =P





Calificar esta versión:
Aviso: Este fichero es trabajo propio de su transcriptor y representa su interpretación personal de la canción. El material contenido en esta página es para exclusivo uso privado, por lo que se prohibe su reproducción o retransmisión, así como su uso para fines comerciales.
Más versiones de Excavador De Tumbas, Francisca Valenzuela
Excavador De Tumbas
acordes
Excavador De Tumbas
bajo
Descubre más canciones de Francisca Valenzuela