Explorador, Fother Muckers (acordes)

Autor: Anónimo | 24685 visualizaciones

asosmcsoscmdsosfsosmfmgsos


  G#
Me iré a recorrer el mundo
                    Fm
a conocerlo por completo
     A#m              C#       G#
voy a probar cada plato típico.
    G#
Voy a subir cada montaña
                    Fm
sumergirme en cada océano
   A#m            C#     A#m
a mirar cada pelea con cuidado
         C#                G#
de no participar en ninguna.
   G#
Recorriendo cada carretera
                   Fm
mirando las aves volar al sur
    A#m       C#         G#
al norte y al sur otra vez.
   G#
Pisando nieve, tierra, pasto, asfalto
                    Fm
en un tormenta de arena
  A#m             C#
bajo la aurora boreal
    A#m             C#
dentro de una caverna
   A#m                 C#
en la cima de un rascacielo
  A#m               C#
atrapado en un teleférico
   A#m               D#    F#m     G#
entre una manada de leones.
G#               Cm          Fm
Veré gente tan triste, tan felíz
      A#m                C#
con hambre, satisfecha, lujuriosa
       A#m                 C#
muy cansada, violenta, muerta de la risa
    A#m             C#
bienintensionada, cobarde, canalla
A#m            C#
inmensamente desafortunada
A#m         D#         F#m       G#
músicos, dentistas, arrieros, ladrones.


SOLO:

                 Fm          G#         Fm
E----------------------------------------------
B----------------------------------------------
G----------------------------------------------
D----------------3----3--3----------------3----
A-------33--66--------------6--3----3--6-------
E---44-----------------------------------------


                Fm          G#         Fm    D#        A#m
E----------------------------------------------
B----------------------------------------------
G----------------------------------------------
D----------------3----3--3----------------3---1
A-------33--66--------------6--3----3--6-------
E---44-----------------------------------------


   G#
Juro por los hijos que no tengo
    Fm                   A#m
voy a conocerlo por completo
     C#              C#         G#
aunque se me vaya la vida.





Calificar esta versión:
Aviso: Este fichero es trabajo propio de su transcriptor y representa su interpretación personal de la canción. El material contenido en esta página es para exclusivo uso privado, por lo que se prohibe su reproducción o retransmisión, así como su uso para fines comerciales.
Más versiones de Explorador, Fother Muckers
Explorador
acordes
Explorador (ver 2)
acordes
Descubre más canciones de Fother Muckers