Wheels, Foo Fighters (tablatura) (ver 2)

Autor: jemm | 39724 visualizaciones



WHEELS-FOO FIGHTERS
INTRO
Distortion on
E-----------------------------/ 2x
B--3-3------------------------/
G--2-2---2-2--x---------------/
D--0-0---2-2--x---4-4-2-2-----/
A--0-0---2-2--x---4-4-2-2-----/
E-------------x---2-2-0-0-----/

VERSE
E-----------------------------/ 
B--3-3------------------------/
G--2-2---2-2--x---------------/
D--0-0---2-2--x---4-4-2-2-----/
A--0-0---2-2--x---4-4-2-2-----/
E ------------x---2-2-0-0-----/
I know what you're thinking
We were going down
i could feel us sinking
and then i came around

and everyone i love before
flashed before my eyes
and nothing mattered anymore
i looked into the sky

well we all want something better than
we wish for something new
well we all want something beautiful
wish for something true
being looking for a reason man
something to lose

CHORUS
Distortion on
E-----------------------------/ 
B--3-3------------------------/
G--2-2---2-2--x---------------/
D--0-0---2-2--x---4-4-2-2-----/
A--0-0---2-2--x---4-4-2-2-----/
E ------------x---2-2-0-0-----/
when the wheels come down
when the wheels touch ground
and you feel like it's all over
there's another round for you
when the wheels come down

VERSE
E-----------------------------/ 
B--3-3------------------------/
G--2-2---2-2--x---------------/
D--0-0---2-2--x---4-4-2-2-----/
A--0-0---2-2--x---4-4-2-2-----/
E ------------x---2-2-0-0-----/
My head is spinning
broken hearts will mend
this is our beginning
coming to an end

well we wanted something beautiful
we wish for something new
well you wanted something better than
wish for something true
been looking for a reason man
something to lose

CHORUS
solo
e|------------------------------------|
B|------------------------------------|
G|--------------(7)-------------------|
D|---7------7------7-7h9p6--6-7-6-----|
A|-5---5-7----7-9-----------------9-7-|
E|------------------------------------| x2

e|--------------------------------------|
B|--------------------------------------|
G|-7--7-7-7h9-6----(7)------------------|
D|--------------9-7---7-7h9-6-6-7-6-4---|
A|------------------------------------7-|
E|--------------------------------------|

e|------------------------------------|
B|------------------------------------|
G|--------------(7)-------------------|
D|---7------7------7-7h9p6--6-7-6-----|
A|-5---5-7----7-9-----------------9-7-|
E|------------------------------------|

CHORUS (X2)





Calificar esta versión:
Aviso: Este fichero es trabajo propio de su transcriptor y representa su interpretación personal de la canción. El material contenido en esta página es para exclusivo uso privado, por lo que se prohibe su reproducción o retransmisión, así como su uso para fines comerciales.
Más versiones de Wheels, Foo Fighters
Wheels
tablatura
Wheels (ver 2)
tablatura
Wheels (ver 3)
tablatura
Wheels (ver 4)
tablatura
Descubre más canciones de Foo Fighters