My Hero, Foo Fighters (acordes)

Autor: jorge_slash | 39547 visualizaciones

acsoscsosmefsos


 My Hero



Introduccion: [E C#] 3x [F# A] 1x
e|-0-0-0-4-4-4-4-4-4-4-4-4-|-------------|
B|-0-0-0-4-4-4-4-4-4-4-4-4-|-------------|
G|-1-1-1-4-4-4-4-4-4-4-4-4-|-----------2-|
D|-2-2-2-6-6-6-6-6-6-6-6-6-|-----4-4-4-2-|
A|-2-2-2-4-4-4-4-4-4-4-4-4-|-----4-4-4-0-|
E|-0-0-0-------------------|-2-2-2-2-2-0-|
 |-----------10x-----------|-----1x------|

Verso: 
e|-0-0-0-4-4-4-4-4-4-4-4-4-|-0-0-0-0-0-0-0-0-0-0-0-0-0-0-0-0-|
B|-0-0-0-4-4-4-4-4-4-4-4-4-|-9-9-9-9-9-9-9-9-9-9-9-9-9-9-9-9-|
G|-1-1-1-4-4-4-4-4-4-4-4-4-|-9-9-9-9-9-9-8-8-8-8-8-8-8-8-8-8-|
D|-2-2-2-6-6-6-6-6-6-6-6-6-|---------------------------------|
A|-2-2-2-4-4-4-4-4-4-4-4-4-|---------------------------------|
E|-0-0-0-------------------|---------------------------------|
 |guitarra 1|              |Guitarra 2| 
E    C#m             E    C#m
Too alarming now to talk about
E          C#m                E        C#m
Take your pictures down and shake it out
E          C#m       E       C#m   E         C#m     E        C#m
Truth or consequence say it aloud use that evidence race it around
 
Refran:
e|---------------------------------------|
B|---------------------------------------|
G|-2-2-2-2---2-2-2-2---2-2-2-2---2-2-2-2-|
D|-2-2-2-2---1-1-1-1---2-2-2-2---3-3-3-3-|
A|-0-0-0-0---0-0-0-0---0-0-0-0---4-4-4-4-|
E|---------------------------------------|
 |------------------4x-------------------|
*       *         *  *                *
 There goes my hero watch him as he goes

e|---------------------------------------|
B|---------------------------------------|
G|-2-2-2-2---2-2-2-2---2-2-2-2---2-2-2-2-|
D|-2-2-2-2---1-1-1-1---2-2-2-2---3-3-3-3-|
A|-0-0-0-0---0-0-0-0---0-0-0-0---4-4-4-4-|
E|---------------------------------------|
 |------------------4x-------------------|
*       *         *  *          *
 There goes my hero he’s ordinary

Passagem:[F# A]
e|-------------|
B|-------------|
G|-----------2-|
D|-----4-4-4-2-|
A|-----4-4-4-0-|
E|-2-2-2-2-2-0-|

Interlúdio:
e|-0-0-0-0-8-|
B|-9-9-9-9-8-|
G|-9-9-9-8-8-|
D|-----------|
A|-----------|
E|-----------|

Verso: 
e|-0-0-0-4-4-4-4-4-4-4-4-4-|-0-0-0-0-0-0-0-0-0-0-0-0-0-0-0-0-|
B|-0-0-0-4-4-4-4-4-4-4-4-4-|-9-9-9-9-9-9-9-9-9-9-9-9-9-9-9-9-|
G|-1-1-1-4-4-4-4-4-4-4-4-4-|-9-9-9-9-9-9-8-8-8-8-8-8-8-8-8-8-|
D|-2-2-2-6-6-6-6-6-6-6-6-6-|---------------------------------|
A|-2-2-2-4-4-4-4-4-4-4-4-4-|---------------------------------|
E|-0-0-0-------------------|---------------------------------|
 |guitarra 1|              |Guitarra 2| 
E         C#m           E       C#m
Don´t the best of them bleed it out
E          C#m           E    C#m 
While the rest of them Peter out
E          C#m       E       C#m   E         C#m     E        C#m
Truth or consequence say it aloud use that evidence race it around

Refran:
e|---------------------------------------|
B|---------------------------------------|
G|-2-2-2-2---2-2-2-2---2-2-2-2---2-2-2-2-|
D|-2-2-2-2---1-1-1-1---2-2-2-2---3-3-3-3-|
A|-0-0-0-0---0-0-0-0---0-0-0-0---4-4-4-4-|
E|---------------------------------------|
 |------------------4x-------------------|
*       *         *  *                *
 There goes my hero watch him as he goes

e|---------------------------------------|
B|---------------------------------------|
G|-2-2-2-2---2-2-2-2---2-2-2-2---2-2-2-2-|
D|-2-2-2-2---1-1-1-1---2-2-2-2---3-3-3-3-|
A|-0-0-0-0---0-0-0-0---0-0-0-0---4-4-4-4-|
E|---------------------------------------|
 |------------------4x-------------------|
*       *         *  *          *
 There goes my hero he’s ordinary

Passagem:[F# A]
e|-------------|
B|-------------|
G|-----------2-|
D|-----4-4-4-2-|
A|-----4-4-4-0-|
E|-2-2-2-2-2-0-|

Passagem:
e|-0-0-0-0-0-0-0-0-0-0-0-0-0-0-0-0-0-0-0-0-0-0-0-0-0-0-0-0-0-0-0-0-|
B|-9-9-9-9-9-9-9-9-9-9-9-9-9-9-9-9-9-9-9-9-9-9-9-9-9-9-9-9-9-9-9-9-|
G|-9-9-9-9-9-9-8-8-8-8-8-8-8-8-8-8-9-9-9-9-9-9-8-8-8-8-9-9-9-9-9-9-|
D|-----------------------------------------------------------------|
A|-----------------------------------------------------------------|
E|-----------------------------------------------------------------|

Verso: 
e|-0-0-0-4-4-4-4-4-4-4-4-4-|-0-0-0-0-0-0-0-0-0-0-0-0-0-0-0-0-|
B|-0-0-0-4-4-4-4-4-4-4-4-4-|-9-9-9-9-9-9-9-9-9-9-9-9-9-9-9-9-|
G|-1-1-1-4-4-4-4-4-4-4-4-4-|-9-9-9-9-9-9-8-8-8-8-8-8-8-8-8-8-|
D|-2-2-2-6-6-6-6-6-6-6-6-6-|---------------------------------|
A|-2-2-2-4-4-4-4-4-4-4-4-4-|---------------------------------|
E|-0-0-0-------------------|---------------------------------|
 |guitarra 1|              |Guitarra 2| 
E        C#m
Kudos my hero
E              C#m
Leaving all the best
E           C#m
Your knows my hero
    E           C#m
The one that´s on

Refran:
e|---------------------------------------|
B|---------------------------------------|
G|-2-2-2-2---2-2-2-2---2-2-2-2---2-2-2-2-|
D|-2-2-2-2---1-1-1-1---2-2-2-2---3-3-3-3-|
A|-0-0-0-0---0-0-0-0---0-0-0-0---4-4-4-4-|
E|---------------------------------------|
 |------------------4x-------------------|
*       *         *  *                *
 There goes my hero watch him as he goes

e|---------------------------------------|
B|---------------------------------------|
G|-2-2-2-2---2-2-2-2---2-2-2-2---2-2-2-2-|
D|-2-2-2-2---1-1-1-1---2-2-2-2---3-3-3-3-|
A|-0-0-0-0---0-0-0-0---0-0-0-0---4-4-4-4-|
E|---------------------------------------|
 |------------------4x-------------------|
*       *         *  *          *
 There goes my hero he’s ordinary

Refran:
e|---------------------------------------|
B|---------------------------------------|
G|-2-2-2-2---2-2-2-2---2-2-2-2---2-2-2-2-|
D|-2-2-2-2---1-1-1-1---2-2-2-2---3-3-3-3-|
A|-0-0-0-0---0-0-0-0---0-0-0-0---4-4-4-4-|
E|---------------------------------------|
 |------------------4x-------------------|
*       *         *  *                *
 There goes my hero watch him as he goes

e|---------------------------------------|
B|---------------------------------------|
G|-2-2-2-2---2-2-2-2---2-2-2-2---2-2-2-2-|
D|-2-2-2-2---1-1-1-1---2-2-2-2---3-3-3-3-|
A|-0-0-0-0---0-0-0-0---0-0-0-0---4-4-4-4-|
E|---------------------------------------|
 |------------------4x-------------------|
*       *         *  *          *
 There goes my hero he’s ordinary

Final:
e|-------------|
B|-------------|
G|-----------2-|
D|-----4-4-4-2-|
A|-----4-4-4-0-|
E|-2-2-2-2-2-0-| 





Comentarios del colaborador: pa flor agus maqqi

Calificar esta versión:
Aviso: Este fichero es trabajo propio de su transcriptor y representa su interpretación personal de la canción. El material contenido en esta página es para exclusivo uso privado, por lo que se prohibe su reproducción o retransmisión, así como su uso para fines comerciales.
Más versiones de My Hero, Foo Fighters
My Hero
acordes
My Hero (ver 2)
acordes
Descubre más canciones de Foo Fighters