Best Of You, Foo Fighters (tablatura) (ver 2)

Autor: d andres | 41996 visualizaciones



|-0-----0-----0---|    |-0-----0-----0---|    |-0-----0-----0---|    |-0-----0-----0---|   | 
|-0-0-0-0-0-0-0-0-|    |-0-0-0-0-0-0-0-0-|    |-0-0-0-0-0-0-0-0-|    |-0-0-0-0-0-0-0-0-|   | 
|-4-4-4-4-4-4-4-4-|    |-4-4-4-4-4-4-4-4-|    |-4-4-4-4-4-4-4-4-|    |-4-4-4-4-4-4-4-4-|   | 
|-2-2-2-2-2-2-2-2-|x2  |-2-2-2-2-2-2-2-2-|x2  |-4-4-4-4-4-4-4-4-|x2  |-2-2-2-2-2-2-2-2-|x2 | X2 
|-4-4-4-4-4-4-4-4-|    |-0-0-0-0-0-0-0-0-|    |-2-2-2-2-2-2-2-2-|    |-0-0-0-0-0-0-0-0-|   | 
|-----------------|    |-----------------|    |-----------------|    |-----------------|   | 
 
 
 
REFRAO/INTRO 
 
|-0-----0-----0---|-----------------|-0-----0-----0---|-0-----0-----0---| 
|-0-0-0-0-0-0-0-0-|-0-----0-----0---|-0-0-0-0-0-0-0-0-|-0-0-0-0-0-0-0-0-| 
|-4-4-4-4-4-4-4-4-|-x-x-x-x-x-x-x-x-|-4-4-4-4-4-4-4-4-|-4-4-4-4-4-4-4-4-| 
|-2-2-2-2-2-2-2-2-|-4-4-4-4-4-4-4-4-|-2-2-2-2-2-2-2-2-|-2-2-2-2-2-2-2-2-| X3 
|-4-4-4-4-4-4-4-4-|-6-6-6-6-6-6-6-6-|-0-0-0-0-0-0-0-0-|-0-0-0-0-0-0-0-0-| 
|-----------------|-7-7-7-7-7-7-7-7-|-----------------|-----------------| 
 
 
VERSE/INTRO GUITAR 2 ( pra jogar a partir da quinta medida) 
 
|------0-----|--------0------|------0-----|-----0-----|------0-----|-----0-----|-----0-----|------0-----| 
|--------0---|-----------0---|--------0---|-------0---|--------0---|-------0-0-|-------0-0-|--------0-0-| 
|---4------4-|----4--------4-|---4------4-|---4-----4-|----------4-|-----------|---4-------|------------| 
|------------|---------------|------------|-----------|------------|-4-4-------|-2---------|-2----------| 
|-2----------|-2-------------|-0----------|-0---------|-4-4--------|-6---------|-0---------|-0-0--------| 
|------------|---------------|------------|-----------|------------|-7---------|-----------|------------| 
 
 





Calificar esta versión:
Aviso: Este fichero es trabajo propio de su transcriptor y representa su interpretación personal de la canción. El material contenido en esta página es para exclusivo uso privado, por lo que se prohibe su reproducción o retransmisión, así como su uso para fines comerciales.
Más versiones de Best Of You, Foo Fighters
Best Of You
acordes
Best Of You
tablatura
Best Of You (ver 2)
tablatura
Descubre más canciones de Foo Fighters