Vivo, Fobia (acordes)

Autor: djkikeone | 53075 visualizaciones

aambmcdemffsosmg


 INTRO: C   Am

C               Am
Nos ahogaremos juntos
C               Am
en aguas que todos quieren probar
C               Am
sin importarnos como es el final
C                 Am               
no hay otras vidas, tierra nada más


C             Am
Caminaremos juntos
C             Am
escaparemos de la realidad
C              Am
si tropezamos no nos dolerá
C                   Am            F
no existen cuerpos, mentes nada mas
     
   G             Em
eres sangre tibia y yo 
           F
me siento vivo
G         C   Am
uoo o o o o..

C                 Am         
Transformaremos  mundos
C              Am
Inventaremos mares que cruzar
C               Am
Si nos perdemos nada pasara
C                  Am            F
Ahora lo entiendo, amar es liberar

 G             Em
eres sangre tibia y yo 
           F
me siento vivo
G         C   Am
uoo o o o o..




  Em          F      
yo me siento vivo
G         C
uoo o o o o
          F
me siento vivo 
G         C
uoo o o o o
          Am
me siento vivo 
          C
uoo o o o o
            Am
me siento vivo



SOLO:      []= hammer   /=slide

e--------------------------------------------------------------
b---------------------------------------------------------------
g-9--7--5-5--[7]---9--7--5-5--[7]---9--7--5--2--2-0-2-5-0-2-5---
d---------------------------------------------------------------
a---------------------------------------------------------------
e---------------------------------------------------------------

e---------------------------------------------------------------
b-------5--8--5-------------------------------------------------
g-5--7----------7--5-----------------------------------5-2-2-[5]
d-------------------7--5--2-----------------------2--5----------
a---------------------------5--3--5--3-----3--5---------------- 
e---------------------------------------------------------------

e-------------------------------------------------------------- 
b------------8/10-[dejar sonar y slide]-/6----------------------
g-5/9-9-9/5-----------------------------------------------------
d--------------------------------------------------------------
a---------------------------------------------------------------
e--------------------------------------------------------------

[repetir coro]


Bm                D         
Transformaremos  mundos
Bm              D
Inventaremos mares que cruzar
Bm               D
Si nos perdemos nada pasara
Bm                  D            G
Ahora lo entiendo, amar es liberar

A             F#m
Eres sangre tibia y yo 
           G
Me siento vivo
A         D   Bm
uoo o o o o..

Terminar con:   Bm    D      [AL mismo ritmo que el intro de C, y Am]

 





Comentarios del colaborador: saludos atoda la bandera

Calificar esta versión:
Aviso: Este fichero es trabajo propio de su transcriptor y representa su interpretación personal de la canción. El material contenido en esta página es para exclusivo uso privado, por lo que se prohibe su reproducción o retransmisión, así como su uso para fines comerciales.
Más versiones de Vivo, Fobia
Vivo
acordes
Vivo
tablatura
Descubre más canciones de Fobia