No Eres Yo, Fobia (bajo) (ver 2)

Autor: Anónimo | 32996 visualizaciones

INTRO
La cancion empieza con un sintetizador empiezas a tocar al segundo 8
g------------------------------------
d------------------------------------
a------88888888888888888888----------  Varias veces
e------------------------------------
VERSO
Seg 35
No necesito un trago mas para tener valor
para acercarme a ti para decirtelo
El mundo nuca fue cuadrado para mi
no me cuestiones mas yo soy feliz asi

g-----------------------------------------------------------
d-----------------------------------------------------------
a-888888888888888888888888-----555555555555555555555555----- x 2
e-----------------------------------------------------------

PRE CORO
No hay nada que pedir,contigo tengo todo,
g--------------------------------------------
d--------------------------------------------
a-13-13-13-13-13 13---8-8-8-8-8-8-8-8-8-8----
e--------------------------------------------
tenia que ocurrir, de todos modos.
g--------------------------------------------
d--------------------------------------------
a-5-5-5-5-5-5-5-5-5---10-10-10-10-10-10-10---
e--------------------------------------------
No puedo imaginar el dia de mañana,
g--------------------------------------------
d--------------------------------------------
a-13-13-13-13-13 13---8-8-8-8-8-8-8-8-8-8----
e--------------------------------------------
nos tiene que llegar me quieras o no.
g--------------------------------------------
d--------------------------------------------
a-5-5-5-5-5-5-5-5-5---10-10-10-10-10-10-10---
e--------------------------------------------


CORO
No entiendes por que no eres yo,
No entiendes por que no eres yo,
g--------------------------------
d--------------------------------
a-55555555555s13-13-13-13-13-13-- x 2
e--------------------------------
No entiendes por que no eres yooo!!!
g--------------------------------------------
d--------------------------------------------
a-55555555555s13-13-13-13-13-13--8-8-8-8-8--8- x 1
e--------------------------------------------


De nuevo tocas el intro pero puede ser esta variacion
g--------------------------------------
d--------------------------------------
a-8888888888888/5/88888888888----------
e--------------------------------------

VUELVES A TOCAR LOS VERSOS,EL PRECORO Y TERMINA CON EL CORO
PARA ACABAR EN EL TONO DE FA a----8------

espero les agrade y opinen
atte daniel
Calificar esta versión:
Aviso: Este fichero es trabajo propio de su transcriptor y representa su interpretación personal de la canción. El material contenido en esta página es para exclusivo uso privado, por lo que se prohibe su reproducción o retransmisión, así como su uso para fines comerciales.
Más versiones de No Eres Yo, Fobia
No Eres Yo
acordes
No Eres Yo
tablatura
No Eres Yo
bajo
No Eres Yo (ver 2)
bajo
Descubre más canciones de Fobia