Muy Maniaco De Mi Parte, Fobia (tablatura)

Autor: Anónimo | 25720 visualizaciones

K rock! Les dejo esta porque en las anteriores no venia el intro,
es mi primer tab, ojala les guste.

slide: /
hammer on: p


Intro:

Am              F              Am             F
e-----0----0/1/0--------------- -----0----0/1/0-----------------------
B-------1------------1-----0--- -------1------------1--------3-3/1----
G----------------------------0- --------------------------------------
D---2--------------2---2------- ---2--------------2---2---------------
A-0--------------3------------- -0--------------3----------5----------
E------------------------3----- --------------------------------------


C            Am         F           Am
e-------------------------------------------0------------------------
B-----1-0--------1-0--------1-1/0-----0-1-3---3-1-0------------------
G---------0----------0------------0----------------------------------
D---2----------2--------------------2--------------------------------
A-3----------0------------3---------0--------------------------------
E-----------------------1--------------------------------------------



RIFF1:

e-5/3-0-3----5/3-0----5/3-0-3/5----5/3-0-1-0-1-0-1-0-1-0-------(...)



RIFF2:

e-0p7-8-8-0-(X3)-3-1-1-0----------



(El intro se toca junto con el verso)


Am              F
Se que estas apunto
         Am               F
de decirme que estoy loco,
           C           Am
que no sirvo para darte
            F            Am
lo que quieres que te de.

     Am
y estoy harto
             F         Am
de que me haga falta algo,
       F             C
de sentir toda la carga
         Am           F   E7
todo el peso de la culpa.


--RIFF1--
F C Am Em
F Am F Dm
F E7
Am F (X2)


Am               F             Am
Se que es muy maniaco de mi parte
       F             C
el llamar para colgarte,
     Am            F          Am
pero ya no tengo nada que decir,
       Am
tengo miedo,
        F            Am
tengo ganas de esconderme,
       F            C
ya no se ni que meterme
     Am            F    E7
para no pensar en ti...oohhh.


--RIFF2--
Am C      [X2]
Am F E7   [X2]
Am F      [X2]
C Am F Am


Gracias! Envienme sus correcciones a mi correo:
Daniel Salazar [danielpodrido@hotmail.com]
Calificar esta versión:
Aviso: Este fichero es trabajo propio de su transcriptor y representa su interpretación personal de la canción. El material contenido en esta página es para exclusivo uso privado, por lo que se prohibe su reproducción o retransmisión, así como su uso para fines comerciales.
Más versiones de Muy Maniaco De Mi Parte, Fobia
Muy Maniaco De Mi Parte
acordes
Muy Maniaco De Mi Parte
tablatura
Muy Maniaco De Mi Parte
bajo
Descubre más canciones de Fobia