Miel Del Escorpión, Fobia (tablatura)

Autor: Anónimo | 27146 visualizaciones

esta se complementa con los acordes anteriores 
para tocarla con dos guitarras


(INTRO)

    RE  SI SOL, RE  SI SOL...
e:-----3-2-10---3-2---5---3-2---10-|
B:-2/3--------------3---3-----3----|
G:------------7--------------------|
D:---------------------------------|
A:---------------------------------|
E:---------------------------------| 


(Arreglo en el coro)

  ahí dame, dame   miel...    pa´curar mi  corazón
e:--10-10-10-10-10-7-7-7-7---10-10-10-10-10-7-7-7-7-|
B:-7--7--7--7--7------------7--7--7--7--7-----------|
G:----------------7-7-7-7------------------7-7-7-7--|
D:--------------------------------------------------|
A:--------------------------------------------------|
E:--------------------------------------------------|
   Yo se que volverás a mi...
e:--5-5-5-5-----------5-5-5-5---------|
B:----------8-8-8-8-----------8-8-8-8-|
G:-7-7-7-7-7-7-7-7---7-7-7-7-7-7-7-7--|
D:------------------------------------|
A:------------------------------------|
E:------------------------------------|


(Final)

   Ahí...del escorpión...curar...corazón  
e:-----------------------------------------|
B:-----------------------------------------|
G:-7----------------------7----------------|
D:-7------------9---------7-----------9----|
A:-5------------9---------5-----------9----|
E:--------------7---------------------7----|
Calificar esta versión:
Aviso: Este fichero es trabajo propio de su transcriptor y representa su interpretación personal de la canción. El material contenido en esta página es para exclusivo uso privado, por lo que se prohibe su reproducción o retransmisión, así como su uso para fines comerciales.
Más versiones de Miel Del Escorpión, Fobia
Miel Del Escorpión
acordes
Miel Del Escorpión
tablatura
Descubre más canciones de Fobia