El Microbito, Fobia (bajo)

Autor: fherxo | 30531 visualizaciones

G|----------------------------------------------------------|
D|----7---7---7---7---5---5---5---5---------5-----------5---|
A|------------------------------------3-0-5---2-3---0-3-----| (X3)
E|--5---5---5---5---3---3---3---3---------------------------|


G|------------------------------------|
D|----7---7---7---7---5---5---5---5---|
A|------------------------------------| (X1)
E|--5---5---5---5---3---3---3---3-----|


   0:32                                     ~~~DEJAR SONAR LA CUERDA
G|----------------------5---4---2------------------|
D|-33333333-55555555----------------5---5--3~~~5---|
A|--------------------3---2---0---3---3------------| (X1)
E|-------------------------------------------------|


G|--------------------------|
D|-----------5----------5---|
A|--0-3--0-3---2-3--0-3-----| (X1)
E|--------------------------|


G|----------------------------------------------------------|
D|----7---7---7---7---5---5---5---5---------5-----------5---|
A|------------------------------------3-0-5---2-3---0-3-----| (X2)
E|--5---5---5---5---3---3---3---3---------------------------|


G|------------------------------------|
D|----7---7---7---7---5---5---5---5---|
A|------------------------------------| (X1)
E|--5---5---5---5---3---3---3---3-----|


   1:07                                     ~~~DEJAR SONAR LA CUERDA
G|----------------------5---4---2------------------|
D|-33333333-55555555----------------5---5--3~~~5---|
A|--------------------3---2---0---3---3------------| (X1)
E|-------------------------------------------------|


G|--------------------------|
D|-----------5----------5---|
A|--0-3--0-3---2-3--0-3-----| (X1)
E|--------------------------|


G|----------------------------------------------------------|
D|----7---7---7---7---5---5---5---5---------5-----------5---|
A|------------------------------------3-0-5---2-3---0-3-----| (X1)
E|--5---5---5---5---3---3---3---3---------------------------|


G|------------------------------------|
D|----7---7---7---7---5---5---5---5---|
A|------------------------------------| (X1)
E|--5---5---5---5---3---3---3---3-----|


   1:35~~~DEJAR SONAR
G|----------5---5-4---2--2-------------------------|
D|----3~~~~----------------5---3---3----3-4-5~~~-5-|
A|-------------------------------3----3------------|
E|-------------------------------------------------|


G|--------------------------|
D|-----------5----------5---|
A|--0-3--0-3---2-3--0-3-----| (X1)
E|--------------------------|


G|----------------------------------------------------------|
D|----7---7---7---7---5---5---5---5---------5-----------5---|
A|------------------------------------3-0-5---2-3---0-3-----| (X1)
E|--5---5---5---5---3---3---3---3---------------------------|


G|------------------------------------|
D|----7---7---7---7---5---5---5---5---|
A|------------------------------------| (X1)
E|--5---5---5---5---3---3---3---3-----|


   2:03                                     ~~~DEJAR SONAR LA CUERDA
G|----------------------5---4---2------------------|
D|-33333333-55555555----------------5---5--3~~~5---|
A|--------------------3---2---0---3---3------------| (X1)
E|-------------------------------------------------|


G|--------------------------|
D|-----------5----------5---|
A|--0-3--0-3---2-3--0-3-----| (X1)
E|--------------------------|


G|----------------------------------------------------------|
D|----7---7---7---7---5---5---5---5---------5-----------5---|
A|------------------------------------3-0-5---2-3---0-3-----| (X1)
E|--5---5---5---5---3---3---3---3---------------------------|

                                       NOTA FINAL
G|------------------------------------|----------|
D|----7---7---7---7---5---5---5---5---|----------|
A|------------------------------------|---3------|
E|--5---5---5---5---3---3---3---3-----|----------|
Calificar esta versión:
Aviso: Este fichero es trabajo propio de su transcriptor y representa su interpretación personal de la canción. El material contenido en esta página es para exclusivo uso privado, por lo que se prohibe su reproducción o retransmisión, así como su uso para fines comerciales.
Más versiones de El Microbito, Fobia
El Microbito
acordes
El Microbito
tablatura
El Microbito
bajo
Descubre más canciones de Fobia