El Diablo, Fobia (tablatura)

Autor: Anónimo | 16932 visualizaciones

Paco Huidobro la toca con algun efecto
(no se cual sea),pero con la distorsión
al estilo de las guitarras yamaha
suena bien. El ritmo tomenlo de la canción.


...'No tires tanto de la cuerda,
    porque a muchas mujeres les gustaria
    que Fernando se ocupara de ellas...
    ¡¡VETE AL DIABLO!!'

(aqui se escucha el grito y comienza la bateria)

Intro   

e|--------12--------12--------12----12-12
B|------12--------12--------12------12-12
G|--9-9-------9-9-------9-9-------9~~~~~~  x 3 veces
D|---------------------------------------  
A|---------------------------------------
E|---------------------------------------

e|---10----11----12-----13-----14-----15-
B|---10----11----12-----13-----14-----15-
G|-7-----8-----9-----11-----12-----13----(tocando rapidamente)
D|---------------------------------------
A|---------------------------------------
E|---------------------------------------

RIFF 1
    
   G                     Em    

e|---------3---------3-----------------
B|-----(3)-3-----(3)-3-----9~~~~~~~----
G|------4--4------4--4-----9--9-9-9-9-7
D|------5---------5------9----7-7-7---7
A|--5-5-------5-5--------7-------------
E|--3-3-------3-3----------------------


RIFF 2

   D

e|---------10-------10-------10-9-
B|-8-8-7-7-8--8-7-7-8--8-7-7-8--8-
G|-7-7-7-7-7--7-7-7-7--7-7-7-7--7-
D|--------------------------------
A|--------------------------------
E|--------------------------------

RIFF 3

e|--------------------------------
B|-----5-5-5-5-5-5-5--------------
G|--6^7-7-6-6-4-4-3-3-2-----------
D|--------------------------------
A|--------------------------------
E|--------------------------------

Final

e|----18b(19)------------------
B|-----------------------------         
G|---------------13b(15)13b(14)  con vibrato
D|-----------------------------
A|-----------------------------
E|-----------------------------


ESTOS SON LOS ACORDES:

    G              Em            D             A

e|--3--        e|--7--       e|--5--       e|--5--
B|--3--        B|--8--       B|--7--       B|--5--
G|--4--        G|--9--       G|--7--       G|--6--
D|--5--        D|--9--       D|--7--       D|--7--
A|--5--        A|--7--       A|--5--       A|--7--
E|--3--        E|--7--       E|--5--       E|--5--


En donde este la indicación del acorde tocar el 
riff correspondiente:

Donde este la indicación: 
 G    Em   hay que tocar el riff 1
Donde este la indicación:
 D   hay que tocar el riff 2 


...'No tires tanto de la cuerda,
    porque a muchas mujeres les gustaria
    que Fernando se ocupara de ellas...
    ¡¡VETE AL DIABLO!!'

(aqui se escucha el grito y comienza la bateria)


INTRO


    G
Mujer, mujer...
Em            G
   el diablo te viene a ver,
Em             G
   trae en el pecho un clavel,
Em             G              Em
   trae en la mano un coctel
      D             D  
para ti,     para ti
      G
Mujer, mujer....
Em              G
   el diablo está aquí en la puerta
Em             G
   porque no te haces la muerta
Em            G                   Em
   porque no bailas can-can,
     D             D    
para MI,   para MI

A        D          A (riff 3)     
  Si preguntan por ti, 
              
que voy a decir   
                                                                   
que voy a inventar

A        D           A(riff 3)
  Cuando no estés aquí,
              
que voy a decir,
               
tendré que fingir.

Mujer, mujer
no se porque decidiste,
el diablo va a estar muy triste,
va a estar cuidando de ti
D                         D
para MI,    para MI
  D     
      para MI

Si preguntan por ti, 
que voy a decir, 
que voy a inventar

Cuando no estés aquí,
que voy a decir,
tendré que fingir

Si preguntan por ti, 
que voy a decir, 
que voy a inventar

Cuando no estés aquí,
que voy a decir,
tendré que mentir

intro

despues improvisar con Em

final

ESO ES TODA LA CANCIÓN, REALMENTE ES FÁCIL,
SÓLO HAY QUE SABER QUE EFECTO LE QUEDA MÁS CHIDO.

PARA CUALQUIER ACLARACIÓN O SI SI QUIEREN MÁS 
TABS DE CUALQUIER CANCIÓN, ESCRIBAN Y YO LES 
AYUDARE ESCRIBEME A:
AKUMAL_X@YAHOO.COM
Calificar esta versión:
Aviso: Este fichero es trabajo propio de su transcriptor y representa su interpretación personal de la canción. El material contenido en esta página es para exclusivo uso privado, por lo que se prohibe su reproducción o retransmisión, así como su uso para fines comerciales.
Más versiones de El Diablo, Fobia
El Diablo
acordes
El Diablo
tablatura
Descubre más canciones de Fobia