Descontrol, Fobia (bajo)

Autor: Anónimo | 30363 visualizaciones

Intro.

g----------------------------|--------------------|
d-------------------7--------|---------------7--9-|
a-------------7h9-----7------|-------7--9-9-------| 
e----5--------------------9--|---5----------------|

g----------------------------|--------------------|
d-------------------7--------|--------------------|
a-------------7h9-----7------|---4--5-------------|
e----5--------------------9--|--------------------|

Verso

g--------------------------|
d----------------------h5--|
a---------------4--5-------|
e---5-----5----------------|


Coro

Piensas.....

g--------------------------------------|
d--------------------------------------|
a---4-4-4-4-4-4-4-4--------------------|
e--------------------5-5-5-5-5-5-5-5---|

g--------------------------------------|-----------------------------------|
d--------------------------------------|-----------------------------------|
a---4-4-4-4-4-4-4-4--------------------|--7-7-7-7-7-7-7-7------------------|
e--------------------5-5-5-5-5-5-5-5---|-------------------7-7-7-7-7-7-7-7-|

Y se repite.
escuchen los tiempos pa que salga bien.

Gracias.
dudas jorgemery@hotmail.com
peticiones o lo que sea pa bajo echenlas.
ahorrense.
Calificar esta versión:
Aviso: Este fichero es trabajo propio de su transcriptor y representa su interpretación personal de la canción. El material contenido en esta página es para exclusivo uso privado, por lo que se prohibe su reproducción o retransmisión, así como su uso para fines comerciales.
Más versiones de Descontrol, Fobia
Descontrol
acordes
Descontrol
tablatura
Descontrol
bajo
Descubre más canciones de Fobia