Camila, Fobia (tablatura)

Autor: Anónimo | 40020 visualizaciones

                   Leyenda
                /.slide p.pull
esta es la version(on ice) del nuevo disco.
este primer intro se repite 2 veces solo con la gtr.
Después 2 veces con los demas instrumentos.

intro
e------------------------------------------|
B------------------------------------------|
G------------------------------------------|
D------------------------------------------|
A------------5-7-8-8-----------8-7-5-5-----|
E-5/7-7-7-7-----------7-7-7-7--------------|


e------------------------------------------|
B-----5-------5----------------------------|
G-----6p5-----6p5----------------7------7--|
D----------------------------7-7-7--7-7-7--|
A------------------9-9--7-7--5-5-5--5-5-5--|
E-5-------7--------7-7--5-5----------------|

1verso
Bm
guarde mis libros y despues de cenar
D                             A
saque mi zapato y me puse a pensar
Bm
q eh sido bueno y se q puedo confiar
    D                        A
q tendre lo q pida esta navidad
Bm
pense en el barco y los muñecos
        D                         A        D
cambiar por un armadillo o el bicho infernal
A      D    A             D
camila, camila no me sueltes
A                  D         Bm   D
es un placer poder tenerte junto ami
A        D   A              D
camila, camila no me olvides
A             D               Bm  D
camila no te dejes encontrar aqui


2verso(igual que el primer verso)


A      D    A              D
camila, camila no me sueltes
A                D              Bm   D
es un placer poder tenerte junto ami
A        D   A              D
camila, camila no me olvides
A               D            Bm  D
camila no te dejes encontrar aqui
A       D         A     D
camila no ohh no ohhh
A           D
no no no no no
A                D
uhhh uhhh uhh  uhh

   Bm  A   D
e--7---5---5--|
B--7---5---7--|
G--7---6---7--|
D--9---7---7--|
A--9---7---5--|
E--7---5------|
Tabs:M80 D.R
los acordes son los mismos que el tab anterior por que
me paresieron correctos.
errores a mi correo un saludo a todos en especial
a la banda de los ex M1S de cd juarez.
Calificar esta versión:
Aviso: Este fichero es trabajo propio de su transcriptor y representa su interpretación personal de la canción. El material contenido en esta página es para exclusivo uso privado, por lo que se prohibe su reproducción o retransmisión, así como su uso para fines comerciales.
Más versiones de Camila, Fobia
Camila
acordes
Camila (ver 2)
acordes
Camila
tablatura
Descubre más canciones de Fobia