Chicas Judias, Flema (bajo)

Autor: Anónimo | 40473 visualizaciones



intro                                           x2
G:------------------------------------------------
D:------------------------------------------------
A:-10-10-10-10--9-9-9-9--7-7-7-7--5-5-5-5---------
E:------------------------------------------------
                                                x2
G:------------|---------------------------------------------------------|
D:------------|---------------------------------------------------------|
A:-3>--5>-----|-10-10-10-10--9-9-9-9--7-7-7-7--5-5-5-5---|-3>--5>-------|
E:------------|---------------------------------------------------------|
verse                                           x2
G:-------------------|---------------------------------------
D:-------------------|---------------------------------------
A:------------3------|--3>--5>-------------------------------
E:---3>--------------|-----------------3----------------------
viaje a israel...

G:-----------------------------------------------------------
D:-----------------------------------------------------------
A:--------2--------3>--------3>--------5>--------------------
E:-3---5----------------3>---------5-------------------------
cuando un dia     yo fui  de viaje a israel...

G:------------------------------------------------------------
D:------------------------------------------------------------
A:--------3>---5>---------------------------------------------
E:--3>--------------------------------------------------------
judias de israel !!!

Fuente original: LaCuerda
Colaborador original: Vincent [[email protected]]





Calificar esta versión:
Aviso: Este fichero es trabajo propio de su transcriptor y representa su interpretación personal de la canción. El material contenido en esta página es para exclusivo uso privado, por lo que se prohibe su reproducción o retransmisión, así como su uso para fines comerciales.
Más versiones de Chicas Judias, Flema
Chicas Judias
acordes
Chicas Judias
bajo
Descubre más canciones de Flema