Ch.(amigos), Flema (bajo)

Autor: Anónimo | 20605 visualizaciones



INTRO:
G:-------------------------
D:-------------------------      X4
A:-------------------------
E:--4/5-5-5-5-5-5-5-5-5-5--

VERSOS:
     ¿COMO  ESTAN?  LOS  EXTRAÑO
G:------------------------------
D:------------------------------
A:----------------4/5-5-5-5-5-5-
E:--4/5-5-5-5-5-5---------------

(ASI SON TODOS ESTOS VERSOS)

ESTRIBILLO:
    PRONTO ESTAREMOS  J U N T O S  OTRA VEZ
G:----------------------------------------------------
D:--------6-----9---------4-7-------------------------
A:--7--7----------7---5-5----5------------------------
E:---------------------------------5-5-5-5--4/5-5-5-5-

(de esta misma forma van las 2 primeras veces ke se
repite,la tercera va un tono mas abajo todo) 

ke seria asi:

VERSOS:
     ¿COMO  ESTAN?  LOS  EXTRAÑO
G:------------------------------
D:------------------------------
A:----------------6/7-7-7-7-7-7-
E:--6/7-7-7-7-7-7---------------

ESTRIBILLO:

    PRONTO ESTAREMOS  J U N T O S  OTRA VEZ
G:----------------------------------------------------
D:--------8-----11---------6-9------------------------
A:--9--9-----------9---7-7-----7----------------------
E:---------------------------------7-7-7-7--6/7-7-7-7-


Bueno esto es todo ,es un temaso de flema! 
RICKY NO SE MURIO ,KE SE MUERA MICK JAGER LA
PUTA KE LO PARIO!!!!
AGUANTE FLEMA!!!

Fuente original: LaCuerda
Colaborador original: Maxi Bizin [[email protected]]





Calificar esta versión:
Aviso: Este fichero es trabajo propio de su transcriptor y representa su interpretación personal de la canción. El material contenido en esta página es para exclusivo uso privado, por lo que se prohibe su reproducción o retransmisión, así como su uso para fines comerciales.
Más versiones de Ch.(amigos), Flema
Ch.(amigos)
acordes
Ch.(amigos)
bajo
Descubre más canciones de Flema