Caigo En Un Pozo, Flema (tablatura)

Autor: saaqfsa | 30720 visualizaciones



4/4
1                      2                   3                        4
e|------------------------------------------------------------------
B|------------------------------------------------------------------
G|----------------------2-------------------------------------------
D|----------2-----------2-------------------------------------------
A|----0-2-4---4-2-0-----0-------------------------------------------
E|------------------------------------------------------------------


4/4
1                      2                   3                        4
e|------------------------------------------------------------------
B|------------------------------------------------------------------
G|----------------------4-------------------------------------------
D|----------2-----------4-------------------------------------------
A|----0-2-4---4-2-0-----2-------------------------------------------
E|------------------------------------------------------------------


4/4
1                      2                   3                        4
e|------------------------------------------------------------------
B|------------------------------------------------------------------
G|----------------------7-------------------------------------------
D|----------2-----------7-------------------------------------------
A|----0-2-4---4-2-0-----5-------------------------------------------
E|------------------------------------------------------------------


4/4
1                      2                   3                        4
e|------------------------------------------------------------------
B|------------------------------------------------------------------
G|----------------------9-------------------------------------------
D|----------2-----------9-------------------------------------------
A|----0-2-4---4-2-0-----7-------------------------------------------
E|------------------------------------------------------------------


4/4
1                      2                   3                        4
e|------------------------------------------------------------------
B|------------------------------------------------------------------
G|----------------------2-------------------------------------------
D|----------2-----------2-------------------------------------------
A|----0-2-4---4-2-0-----0-------------------------------------------
E|------------------------------------------------------------------


4/4
1                      2                   3                        4
e|------------------------------------------------------------------
B|------------------------------------------------------------------
G|------------------------------------------------------------------
D|----------2-----------4--------------4----------------------------
A|----0-2-4---4-2-0-----4--------------4----------------------------
E|----------------------2--------------2----------------------------


4/4
1                      2                   3                        4
e|------------------------------------------------------------------
B|------------------------------------------------------------------
G|----------------------7-------------------------------------------
D|----------2-----------7-------------------------------------------
A|----0-2-4---4-2-0-----5-------------------------------------------
E|------------------------------------------------------------------


4/4
1                      2                   3                        4
e|------------------------------------------------------------------
B|------------------------------------------------------------------
G|----------------------9---------9-----9--9------------------------
D|----------2-----------9---------9-----9--9------------------------
A|----0-2-4---4-2-0-----7---------7-----7--7------------------------
E|------------------------------------------------------------------



4/4
1                      2                   3                        4
e|------------------------------------------------------------------
B|------------------------------------------------------------------
G|----------------------2-------------------------------------------
D|----------2-----------2-------7----7----7----7----7----7----------
A|----0-2-4---4-2-0-----0-------7----7----7----7----7----7----------
E|------------------------------5----5----5----5----5----5----------




4/4
1                      2                   3                        4
e|------------------------------------------------------------------
B|------------------------------------------------------------------
G|------------------------------------------------------------------
D|---7---7---7---7---7---7---7---7----------------------------------
A|---7---7---7---7---7---7---7---7----------------------------------
E|---5---5---5---5---5---5---5---5----------------------------------




4/4
1                      2                   3                        4
e|------------------------------------------------------------------
B|------------------------------------------------------------------
G|------------------------------------------------------------------
D|--4---4---4---4---4---4---4---4-----------------------------------
A|--4---4---4---4---4---4---4---4-----------------------------------
E|--2---2---2---2---2---2---2---2-----------------------------------

4/4
1                      2                   3                        4
e|------------------------------------------------------------------
B|------------------------------------------------------------------
G|------------------------------------------------------------------
D|--4---4---4---4---4---4---4---4-----------------------------------
A|--4---4---4---4---4---4---4---4-----------------------------------
E|--2---2---2---2---2---2---2---2-----------------------------------


4/4
1                      2                   3                        4
e|------------------------------------------------------------------
B|------------------------------------------------------------------
G|------------------------------------------------------------------
D|--7---7---7---7---7---7---7---7-----------------------------------
A|--7---7---7---7---7---7---7---7-----------------------------------
E|--5---5---5---5---5---5---5---5-----------------------------------


4/4
1                      2                   3                        4
e|------------------------------------------------------------------
B|------------------------------------------------------------------
G|------------------------------------------------------------------
D|--7---7---7---7---7---7---7---7-----------------------------------
A|--7---7---7---7---7---7---7---7-----------------------------------
E|--5---5---5---5---5---5---5---5-----------------------------------


4/4
1                      2                   3                        4
e|------------------------------------------------------------------
B|------------------------------------------------------------------
G|------------------------------------------------------------------
D|--9---9---9---9---9---9---9---9-----------------------------------
A|--9---9---9---9---9---9---9---9-----------------------------------
E|--7---7---7---7---7---7---7---7-----------------------------------


4/4
1                      2                   3                        4
e|------------------------------------------------------------------
B|------------------------------------------------------------------
G|------------------------------------------------------------------
D|--9---9---9---9---9---9---9---9---7----------7------7--7----------
A|--9---9---9---9---9---9---9---9---7----------7------7--7----------
E|--7---7---7---7---7---7---7---7---5----------5------5--5----------


4/4
1                      2                   3                        4
e|------------------------------------------------------------------
B|------------------------------------------------------------------
G|------------------------------------------------------------------
D|--7--------2----------4----------4------4---4---------------------
A|--7--0-2-4---4-2-0----4----------4------4---4---------------------
E|--5-------------------2----------2------2---2---------------------



4/4
1                      2                   3                        4
e|------------------------------------------------------------------
B|------------------------------------------------------------------
G|----------------------7---------7------7---7----------------------
D|--4--------2----------7---------7------7---7----------------------
A|--4--0-2-4---4-2-0----5---------5------5---5----------------------
E|--2---------------------------------------------------------------



4/4
1                      2                   3                        4
e|------------------------------------------------------------------
B|------------------------------------------------------------------
G|--7--------------------7--------9------9---9----------------------
D|--7--------2----------7---------9------9---9----------------------
A|--5--0-2-4---4-2-0----5---------7------7---7----------------------
E|------------------------------------------------------------------


4/4
1                      2                   3                        4
e|------------------------------------------------------------------
B|------------------------------------------------------------------
G|--9---------------------------------------------------------------
D|--9--------2---------7------7--7--7--7--7--7----------------------
A|--7--0-2-4---4-2-0---7------7--7--7--7--7--7----------------------
E|---------------------5------5--5--5--5--5--5----------------------


4/4
1                      2                   3                        4
e|------------------------------------------------------------------
B|------------------------------------------------------------------
G|------------------------------------------------------------------
D|--7---7---7---7---7---7---7---7----4----4--4--4--4--4--4----------
A|--7---7---7---7---7---7---7---7----4----4--4--4--4--4--4----------
E|--5---5---5---5---5---5---5---5----2----2--2--2--2--2--2----------

4/4
1                      2                   3                        4
e|------------------------------------------------------------------
B|------------------------------------------------------------------
G|-----------------------------------7----7--7--7--7--7--7----------
D|--4---4---4---4---4---4---4---4----7----7--7--7--7--7--7----------
A|--4---4---4---4---4---4---4---4----5----5--5--5--5--5--5----------
E|--2---2---2---2---2---2---2---2-----------------------------------




4/4
1                      2                   3                        4
e|------------------------------------------------------------------
B|------------------------------------------------------------------
G|--7--7--7--7--7--7--7--7----9----9--9--9--9--9--9-----------------
D|--7--7--7--7--7--7--7--7----9----9--9--9--9--9--9-----------------
A|--5--5--5--5--5--5--5--5----7----7--7--7--7--7--7-----------------
E|------------------------------------------------------------------



4/4
1                      2                   3                        4
e|------------------------------------------------------------------
B|------------------------------------------------------------------
G|--9--9--9--9--9--9--9--9----2-------------------------------------
D|--9--9--9--9--9--9--9--9----2-------------------------------------
A|--7--7--7--7--7--7--7--7----0-------------------------------------
E|------------------------------------------------------------------


ACA

4/4
1                      2                   3                        4
e|------------------------------------------------------------------
B|------------------------------------------------------------------
G|----------------------4-------------------------------------------
D|----------2-----------4-------------------------------------------
A|----0-2-4---4-2-0-----2-------------------------------------------
E|------------------------------------------------------------------



4/4
1                      2                   3                        4
e|------------------------------------------------------------------
B|------------------------------------------------------------------
G|----------------------7-------------------------------------------
D|----------2-----------7-------------------------------------------
A|----0-2-4---4-2-0-----5-------------------------------------------
E|------------------------------------------------------------------



4/4
1                      2                   3                        4
e|------------------------------------------------------------------
B|------------------------------------------------------------------
G|----------------------9-------------------------------------------
D|----------2-----------9-------------------------------------------
A|----0-2-4---4-2-0-----7-------------------------------------------
E|------------------------------------------------------------------


4/4
1                      2                   3                        4
e|------------------------------------------------------------------
B|------------------------------------------------------------------
G|----------------------2------2--2---------------------------------
D|----------2-----------2------2--2---------------------------------
A|----0-2-4---4-2-0-----0------0--0---------------------------------
E|------------------------------------------------------------------



4/4
1                      2                   3                        4
e|------------------------------------------------------------------
B|------------------------------------------------------------------
G|------------------------------------------------------------------
D|----------2-----------4-----4--4----------------------------------
A|----0-2-4---4-2-0-----4-----4--4----------------------------------
E|----------------------2-----2--2----------------------------------


4/4
1                      2                   3                        4
e|------------------------------------------------------------------
B|------------------------------------------------------------------
G|----------------------7----7--7-----------------------------------
D|----------2-----------7----7--7-----------------------------------
A|----0-2-4---4-2-0-----5----5--5-----------------------------------
E|------------------------------------------------------------------



4/4
1                      2                   3                        4
e|------------------------------------------------------------------
B|------------------------------------------------------------------
G|----------------------9------9--9---------------------------------
D|----------2-----------9------9--9---------------------------------
A|----0-2-4---4-2-0-----7------7--7---------------------------------
E|------------------------------------------------------------------


4/4
1                      2                   3                        4
e|------------------------------------------------------------------
B|------------------------------------------------------------------
G|----------------------2-------------------------------------------
D|----------2-----------2-------7----7----7----7----7----7----------
A|----0-2-4---4-2-0-----0-------7----7----7----7----7----7----------
E|------------------------------5----5----5----5----5----5----------



4/4
1                      2                   3                        4
e|------------------------------------------------------------------
B|------------------------------------------------------------------
G|------------------------------------------------------------------
D|--7---7---7---7---7---7---7---7-----------------------------------
A|--7---7---7---7---7---7---7---7-----------------------------------
E|--5---5---5---5---5---5---5---5-----------------------------------



4/4
1                      2                   3                        4
e|------------------------------------------------------------------
B|------------------------------------------------------------------
G|------------------------------------------------------------------
D|--4---4---4---4---4---4---4---4-----------------------------------
A|--4---4---4---4---4---4---4---4-----------------------------------
E|--2---2---2---2---2---2---2---2-----------------------------------


4/4
1                      2                   3                        4
e|------------------------------------------------------------------
B|------------------------------------------------------------------
G|------------------------------------------------------------------
D|--4---4---4---4---4---4---4---4-----------------------------------
A|--4---4---4---4---4---4---4---4-----------------------------------
E|--2---2---2---2---2---2---2---2-----------------------------------



4/4
1                      2                   3                        4
e|------------------------------------------------------------------
B|------------------------------------------------------------------
G|--7---7---7---7---7---7---7---7-----------------------------------
D|--7---7---7---7---7---7---7---7-----------------------------------
A|--5---5---5---5---5---5---5---5-----------------------------------
E|------------------------------------------------------------------



4/4
1                      2                   3                        4
e|------------------------------------------------------------------
B|------------------------------------------------------------------
G|--7---7---7---7---7---7---7---7-----------------------------------
D|--7---7---7---7---7---7---7---7-----------------------------------
A|--5---5---5---5---5---5---5---5-----------------------------------
E|------------------------------------------------------------------

4/4
1                      2                   3                        4
e|------------------------------------------------------------------
B|------------------------------------------------------------------
G|--9---9---9---9---9---9---9---9-----------------------------------
D|--9---9---9---9---9---9---9---9-----------------------------------
A|--7---7---7---7---7---7---7---7-----------------------------------
E|------------------------------------------------------------------


4/4
1                      2                   3                        4
e|------------------------------------------------------------------
B|------------------------------------------------------------------
G|--9---9---9---9---9---9---9---9-----------------------------------
D|--9---9---9---9---9---9---9---9-----------------------------------
A|--7---7---7---7---7---7---7---7-----------------------------------
E|------------------------------------------------------------------

4/4
1                      2                   3                        4
e|------------------------------------------------------------------
B|------------------------------------------------------------------
G|------------------------------------------------------------------
D|--7---7---7---7---7---7---7---7-----------------------------------
A|--7---7---7---7---7---7---7---7-----------------------------------
E|--5---5---5---5---5---5---5---5-----------------------------------


4/4
1                      2                   3                        4
e|------------------------------------------------------------------
B|------------------------------------------------------------------
G|------------------------------------------------------------------
D|--7---7---7---7---7---7---7---7-----------------------------------
A|--7---7---7---7---7---7---7---7-----------------------------------
E|--5---5---5---5---5---5---5---5-----------------------------------


4/4
1                      2                   3                        4
e|------------------------------------------------------------------
B|------------------------------------------------------------------
G|------------------------------------------------------------------
D|--4---4---4---4---4---4---4---4-----------------------------------
A|--4---4---4---4---4---4---4---4-----------------------------------
E|--2---2---2---2---2---2---2---2-----------------------------------



4/4
1                      2                   3                        4
e|------------------------------------------------------------------
B|------------------------------------------------------------------
G|------------------------------------------------------------------
D|--4---4---4---4---4---4---4---4-----------------------------------
A|--4---4---4---4---4---4---4---4-----------------------------------
E|--2---2---2---2---2---2---2---2-----------------------------------




4/4
1                      2                   3                        4
e|------------------------------------------------------------------
B|------------------------------------------------------------------
G|--7---7---7---7---7---7---7---7-----------------------------------
D|--7---7---7---7---7---7---7---7-----------------------------------
A|--5---5---5---5---5---5---5---5-----------------------------------
E|------------------------------------------------------------------



4/4
1                      2                   3                        4
e|------------------------------------------------------------------
B|------------------------------------------------------------------
G|--7---7---7---7---7---7---7---7-----------------------------------
D|--7---7---7---7---7---7---7---7-----------------------------------
A|--5---5---5---5---5---5---5---5-----------------------------------
E|------------------------------------------------------------------

4/4
1                      2                   3                        4
e|------------------------------------------------------------------
B|------------------------------------------------------------------
G|--9---9---9---9---9---9---9---9-----------------------------------
D|--9---9---9---9---9---9---9---9-----------------------------------
A|--7---7---7---7---7---7---7---7-----------------------------------
E|------------------------------------------------------------------




4/4
1                      2                   3                        4
e|------------------------------------------------------------------
B|------------------------------------------------------------------
G|--9--9--9--9--9--9--9--9------------------------------------------
D|--9--9--9--9--9--9--9--9----7----7--7--7--7--7--7-----------------
A|--7--7--7--7--7--7--7--7----7----7--7--7--7--7--7-----------------
E|----------------------------5----5--5--5--5--5--5-----------------



4/4
1                      2                   3                        4
e|------------------------------------------------------------------
B|------------------------------------------------------------------
G|------------------------------------------------------------------
D|--7---7---7---7---7---7---7---7----4-----4--4--4--4--4--4---------
A|--7---7---7---7---7---7---7---7----4-----4--4--4--4--4--4---------
E|--5---5---5---5---5---5---5---5----2-----2--2--2--2--2--2---------




4/4
1                      2                   3                        4
e|------------------------------------------------------------------
B|------------------------------------------------------------------
G|-----------------------------------7----7--7--7--7--7--7----------
D|--4---4---4---4---4---4---4---4----7----7--7--7--7--7--7----------
A|--4---4---4---4---4---4---4---4----5----5--5--5--5--5--5----------
E|--2---2---2---2---2---2---2---2-----------------------------------




4/4
1                      2                   3                        4
e|------------------------------------------------------------------
B|------------------------------------------------------------------
G|--7--7--7--7--7--7--7--7----9------9--9--9--9--9--9---------------
D|--7--7--7--7--7--7--7--7----9------9--9--9--9--9--9---------------
A|--5--5--5--5--5--5--5--5----7------7--7--7--7--7--7---------------
E|------------------------------------------------------------------




4/4
1                      2                   3                        4
e|------------------------------------------------------------------
B|------------------------------------------------------------------
G|--9--9--9--9--9--9--9--9------------------------------------------
D|--9--9--9--9--9--9--9--9----7-----7--7--7--7--7--7----------------
A|--7--7--7--7--7--7--7--7----7-----7--7--7--7--7--7----------------
E|----------------------------5-----5--5--5--5--5--5----------------




4/4
1                      2                   3                        4
e|------------------------------------------------------------------
B|------------------------------------------------------------------
G|------------------------------------------------------------------
D|--7---7---7---7---7---7---7---7----4-----4--4--4--4--4--4---------
A|--7---7---7---7---7---7---7---7----4-----4--4--4--4--4--4---------
E|--5---5---5---5---5---5---5---5----2-----2--2--2--2--2--2---------



4/4
1                      2                   3                        4
e|------------------------------------------------------------------
B|------------------------------------------------------------------
G|-----------------------------------7----7--7--7--7--7--7----------
D|--4---4---4---4---4---4---4---4----7----7--7--7--7--7--7----------
A|--4---4---4---4---4---4---4---4----5----5--5--5--5--5--5---------
E|--2---2---2---2---2---2---2---2-----------------------------------







4/4
1                      2                   3                        4
e|------------------------------------------------------------------
B|------------------------------------------------------------------
G|--7--7--7--7--7--7--7--7----9------9--9--9--9--9--9---------------
D|--7--7--7--7--7--7--7--7----9------9--9--9--9--9--9---------------
A|--5--5--5--5--5--5--5--5----7------7--7--7--7--7--7---------------
E|------------------------------------------------------------------



4/4
1                      2                   3                        4
e|------------------------------------------------------------------
B|------------------------------------------------------------------
G|--9--9--9--9--9--9--9--9------------------------------------------
D|--9--9--9--9--9--9--9--9----7-----7--7--7--7--7--7----------------
A|--7--7--7--7--7--7--7--7----7-----7--7--7--7--7--7----------------
E|----------------------------5-----5--5--5--5--5--5----------------


4/4
1                      2                   3                        4
e|------------------------------------------------------------------
B|------------------------------------------------------------------
G|------------------------------------------------------------------
D|--7---7---7---7---7---7---7---7----4-----4--4--4--4--4--4---------
A|--7---7---7---7---7---7---7---7----4-----4--4--4--4--4--4---------
E|--5---5---5---5---5---5---5---5----2-----2--2--2--2--2--2---------



4/4
1                      2                   3                        4
e|------------------------------------------------------------------
B|------------------------------------------------------------------
G|-----------------------------------7----7--7--7--7--7--7----------
D|--4---4---4---4---4---4---4---4----7----7--7--7--7--7--7----------
A|--4---4---4---4---4---4---4---4----5----5--5--5--5--5--5----------
E|--2---2---2---2---2---2---2---2-----------------------------------



4/4
1                      2                   3                        4
e|------------------------------------------------------------------
B|------------------------------------------------------------------
G|--7--7--7--7--7--7--7--7----9------9--9--9--9--9--9---------------
D|--7--7--7--7--7--7--7--7----9------9--9--9--9--9--9---------------
A|--5--5--5--5--5--5--5--5----7------7--7--7--7--7--7---------------
E|------------------------------------------------------------------





4/4
1                      2                   3                        4
e|------------------------------------------------------------------
B|------------------------------------------------------------------
G|--9--9--9--9--9--9--9--9------------------------------------------
D|--9--9--9--9--9--9--9--9-------------------------7----------------
A|--7--7--7--7--7--7--7--7-------------------------7----------------
E|-------------------------------------------------5----------------


4/4
1                      2                   3                        4
e|------------------------------------------------------------------
B|------------------------------------------------------------------
G|------------------------------------------------------------------
D|-------------------------------------------------7----------------
A|-------------------------------------------------7----------------
E|-------------------------------------------------5----------------




Flema - caigo en un pozo , para guitarra electrica y tocando con tu banda solo guitarra completo! ;)





Comentarios del colaborador: Fuente: http://www.songsterr.com/a/wsa/flema-caigo-en-un-pozo-guitar-tab-s35330t1

Calificar esta versión:
Aviso: Este fichero es trabajo propio de su transcriptor y representa su interpretación personal de la canción. El material contenido en esta página es para exclusivo uso privado, por lo que se prohibe su reproducción o retransmisión, así como su uso para fines comerciales.
Más versiones de Caigo En Un Pozo, Flema
Caigo En Un Pozo
acordes
Caigo En Un Pozo
tablatura
Descubre más canciones de Flema