Blanco Cristal, Flema (bajo)

Autor: Anónimo | 45147 visualizaciones



INTRO :  B E F# B
Esta Es La Forma Mas Facil!
G/-------------------------------------
D/-------------------------------------
A/-------------7------9----------------
E/-----------7------------7------------

G/----------|--------6|-----------8----|------
D/--------6-|--6--9---|----8---11-----9|------
A/---6--9---|7--------|-9--------------|------
E/-7--------|---------|----------------|------

La Otra Es:
Intro:
G/-------------------------------------
D/-------------------------------------
A/---2---------------------------------
E/------0----2-------------------------

G/-----------1-|--------------|-------------
D/----1---4----|--------------|-------1-----
A/--2----------|------------4-|--1--4----2--
E/-------------|-0---4---7----|-2-----------


letra:
B            E          F#        B
Ella me atrapo con su blanco cristal
y no puedo estar sin cerveza tomar
y mis amigos mañana traeran
blancos cristales para jalar

B                    E
Mas, otra mas, otra mas, otra mas,
      F#                    B
otra mas, otra mas, quiero cerveza tomar
Mas, otra mas, otra mas, otra mas,
otra mas, otra mas, quiero cerveza tomar


Aclaro: Son las Mismas Notas Solo que uma es mayor y la otra menor





Calificar esta versión:
Aviso: Este fichero es trabajo propio de su transcriptor y representa su interpretación personal de la canción. El material contenido en esta página es para exclusivo uso privado, por lo que se prohibe su reproducción o retransmisión, así como su uso para fines comerciales.
Más versiones de Blanco Cristal, Flema
Blanco Cristal
acordes
Blanco Cristal
bajo
Descubre más canciones de Flema