Anarquia En La Escuela, Flema (bajo)

Autor: Anónimo | 27386 visualizaciones



Esta es la versión de bajo de:
   "Anarquía en la Escuela"


Despues del punteo del Inicio va el siguiente punteo:
|-----------------------------------------------------------|
|-----------------------------------------------------------|
|-----------------------------------------------------------|
|-2s3-3333333333--2s3-3333333333----------------------------|

Verso: "No va mas, vasta ya..."
|-----------------------------------------------------------|
|-----------------------------------------------------------|
|-3-333--------3-333-------3-333----------------------------|
|-------1-111--------1-111-------1-111----------------------|

Puente: "Hoy los chicos solo quieren faltar..."
|-----------------------------------------------------------|
|-----------------------------------------------------------|
|-----------------------------------------------------------|
|-2s3-3333333333--2s3-3333333333----------------------------|

Estribillo: "Insultaremos, al director..."
|-----------------------------------------------------------|
|-----------------------------------------------------------|
|-333-33--------333-33--------333-33------------------------|
|--------111-11--------111-11--------111-11-----------------|


Sigue en este orden:
INTRO (igual al Puente)
VERSO
PUENTE
VERSO
PUENTE
ESTRIBILLO
PUENTE
ESTRIBILLO
PUENTE (X2)
VERSO
PUENTE
VERSO
PUENTE
ESTRIBILLO
PUENTE
ESTRIBILLO
PUENTE (X2)


Ahí va la letra:

No va mas, va a estallar
no soporto la escuela
Niños aburridos, pricioneros!

Hoy los chicos solo quieren faltar... X2

Les diré que hacer, hoy vamos a enloquecer
no somos artistas como ayer

Hoy los chicos solo quieren faltar... X2

Escupiremos al director,
y mearemos al celador.
Incendiaremos todas las aulas

Anarquía en la escuela... X2

Agarraremos, los profesores
los colgaremos de sus corbatas.
En sus cabezas haremos caca

Anarquía en la escuela... X4

Vamos nena no mires atrás,
unite a la banda vamos a partuciar.
Derocaremos esta Sociedad.

Hoy los chicos solo quieren faltar... X2

Escupiremos al director,
y mearemos al celador.
Incendiaremos todas las aulas

Anarquía en la escuela... X2

Agarraremos, los profesores
los colgaremos de sus corbatas.
En sus cabezas haremos caca

Anarquía en la escuela... X4



DEDICADO PARA EL FLEMERO DE MI AMIGO "Atilio" y "Dacha"
Cualquier duda mandenme un mail a: [email protected]
PELOTUDOS WEBMASTERS, QUISE HACERLO POR EL OTRO MODO DE COLABORACIÓN
Y NO PUDE PORQUE NO SE ENCUENTRA LA PAGINA EN EL PASO 3
AHORA QUIERO MIS PUNTOS LOCO, ME CORRESPONDE...

Fuente original: LaCuerda
Colaborador original: Manuel Benitez [[email protected]]





Calificar esta versión:
Aviso: Este fichero es trabajo propio de su transcriptor y representa su interpretación personal de la canción. El material contenido en esta página es para exclusivo uso privado, por lo que se prohibe su reproducción o retransmisión, así como su uso para fines comerciales.
Más versiones de Anarquia En La Escuela, Flema
Anarquia En La Escuela
acordes
Anarquia En La Escuela (ver 2)
acordes
Anarquia En La Escuela
tablatura
Anarquía En La Escuela (ver 2)
tablatura
Anarquia En La Escuela
bajo
Descubre más canciones de Flema