Las Nubes De Tu Pelo, Fito & Fitipaldis (tablatura)

Autor: Anónimo | 41929 visualizaciones

Los ritmos no están muy bien ya que es el primer tab que 
escribo...Dudas o sugerencias escribid a gonkc630@hotmail.com
Gracias

INTRO:

--------------------------------------------------------
-1--1-1-1-1-1-1-1---3---3---------3---3-----------------
-0--0-0-0-0-0-0-0---0---0---------0---0---2---2-0-2-2-0-
-2--2-0-2---2-0-----------0---------------4---4---4-4---
------------------2---2-----2-2-2---2---2---2-----------
------------------3---3-----3-3-3---3-------------------

------------------------
------------------------
------------------------
4-2--2-2-0-2-2-2-0-0-2-0
2-2--2-2-2-2-2-2-2-2-2-2
------------------------


------------------3-0------------------------------------
-1--1-1-1-1---3-3----------------------------------------
-0--0-0-0-0-4-------------------0--------------------2---
-2--2-0-2-------------2-2-2-0-2-2-2-0-2-2-0----------4---
----------------------2-2-2-2-2-2-2-2-2-2-2-2--2-2-0-2-2-
--------------------------------------------3--3-3-------



------2-2-2--
------4-4-4--
-2-2--2-2-2--
-4-4--4-4-4--
-2-2--2-2-2--
-------------

ESTROFA:

No hay mejor lugar.... 

----------------------------------------------------------
-1--1-1-1-1-1-1-1---3---3---------3---3-------------------
-0--0-0-0-0-0-0-0---0---0---------0---0---2---2-0-2-2-0---
-2--2-0-2---2-0-----------0---------------4---4---4-4---4-
------------------2---2-----2-2-2---2---2---2-----------2-
------------------3---3-----3-3-3---3---------------------



----------------------
----------------------
----------------------
2--2-2-0-2-2-2-0-0-2-0
2--2-2-2-2-2-2-2-2-2-2
----------------------


------------------3-0--------------------------------------
-1--1-1-1-1---3-3------------------------------------------
-0--0-0-0-0-4-------------------0--------------------2---2-
-2--2-0-2-------------2-2-2-0-2-2-2-0-2-2-0----------4---4-
----------------------2-2-2-2-2-2-2-2-2-2-2-2--2-2-0-2-2-2-
--------------------------------------------3--3-3---------


--------2--
-------4---
-2----2----
-4---4-----
-2--2------
-----------



En medio del mar...

-----------------------------------------------------------
-1--1-1-1-1-1-1-1---3---3---------3---3--------------------
-0--0-0-0-0-0-0-0---0---0---------0---0---2---2-0-2-2-0----
-2--2-0-2---2-0-----------0---------------4---4---4-4---4-2
------------------2---2-----2-2-2---2---2---2-----------2-2
------------------3---3-----3-3-3---3----------------------



----------------------
----------------------
----------------------
--2-2-0-2-2-2-0-0-2-0-
--2-2-2-2-2-2-2-2-2-2-
----------------------



------------------3-0--------------------------------------
-1--1-1-1-1---3-3------------------------------------4---4-
-0--0-0-0-0-4-------------------0--------------------2---2-
-2--2-0-2-------------2-2-2-0-2-2-2-0-2-2-0----------4---4-
----------------------2-2-2-2-2-2-2-2-2-2-2-2--2-2-0-2-2-2-
--------------------------------------------3--3-3---------



--------------------2-2-2--
----4---4---4---4---4-4-4--
----2---2---2---2---2-2-2--
----4---4---4---4---4-4-4--
2-2-2-2-2-2-2-2-2-2-2-2-2--
---------------------------



ESTRIBILLO:

Hoy me quedo en casa...


------------------------------------------------------------
---1----1-----4----4-----8----8-------8---8------1----1-----
---0----0-----2----2-----9----9-9-----9---9-9----0----0-----
-2----2---2-4----4---4-9----9---9-9-9---9---9--2----2---2-4-
-3----3---3-2----2---2-7----7-----7-7---7------3----3---3-2-
------------------------------------------------------------

---------------------------------
-4----4-----8----8-------8---8---
-2----2-----9----9-9-----9---9-9-
----4---4-9----9---9-9-9---9---9-
----2---2-7----7-----7-7---7-----
---------------------------------



------------------------------------------------------------
---1----1-----4----4-----0----0-------0---0------1----1-----
---0----0-----2----2-----0----0-0-----0---0-0----0----0-----
-2----2---2-4----4---4-2----2---2-2-2---2---2--2----2---2-2-
-3----3---3-2----2---2-2----2-----2-2---2------3----3---3-3-
------------------------------------------------------------



------------------2-2-2--
1----1---4---4----4-4-4--
0----0---2---2----2-2-2--
---2---4---4---4--4-4-4--
---3---2---2---2--2-2-2--
-------------------------


Durante el punteo mas o menos con el mismo ritmillo pero con
MIm, RE , DO  y SOL .y el final del punteo en Si7.

Se repite el estribillo 2 veces y otra vez el punteo.


PUNTEO:


MIm             RE    DO          SOL      MIm    RE   DO     
------------------------------------------------------------
------------------------------------------------------------
----7-----------------------------------------7-------------
-/9---9-7-------9-7---10-9---------9-------/9---9-7---------
----------/7-10------------10-7------10-------------10-/7-10
--------------------------------10--------------------------

              SOL    
-----------------------------------
-----------------------------------
-----------------------------------
-9-7------7-9b-9-7--------9--------
-----7h10----------7----7--10------
---------------------10------------




SI7
-------14-------11-----8-----------14-------11-----8----
--------------------------------------------------------
----14-------11------8---8------14-------11------8---8--
-13-------10-------7---------13-------10-------7--------
--------------------------------------------------------
--------------------------------------------------------

ACORDES:

MIm   MIm  DO   SOL  RE   SI7
-0----7----0----3----2----2-
-0----8----1----3----3----4-
-0----9----0----0----2----2-
-2----9----2----0----0----4-
-2----7----3----2---------2-
-0--------------3-----------
Calificar esta versión:
Aviso: Este fichero es trabajo propio de su transcriptor y representa su interpretación personal de la canción. El material contenido en esta página es para exclusivo uso privado, por lo que se prohibe su reproducción o retransmisión, así como su uso para fines comerciales.
Más versiones de Las Nubes De Tu Pelo, Fito & Fitipaldis
Las Nubes De Tu Pelo
acordes
Las Nubes De Tu Pelo
tablatura
Las Nubes De Tu Pelo (ver 2)
tablatura
Descubre más canciones de Fito & Fitipaldis