Donde Todo Empieza, Fito & Fitipaldis (tablatura) (ver 2)

Autor: Anónimo | 15559 visualizaciones

Cejilla en el primer traste:

INTRO:
E-------------------|---------------------|--------------------------|
B------5--2---------|------5--2-----------|------2h3b2---------------|
G---2--------4b2-4--|---2--------4b2-4/6--|-----2------4---1h2-------|
D-------------------|---------------------|--0h2---------------4/2---|
A-------------------|---------------------|--------------------------|
E-------------------|---------------------|--------------------------|

E-------------------|---------------------|-----------------------------|
B------5--2---------|------5--2-----------|-----2h3b2----5-2h3----------|
G---2--------4b2-4--|---2--------4b2-4/6--|----------4------------------|
D-------------------|---------------------|---2----------------4---4/2--|
A-------------------|---------------------|--4--------------------------|
E-------------------|---------------------|-----------------------------|


A                      E             D
Puede que no valga la pena escribir,
                    A
tan lejos de la poesía
A                        E             D
todas las palabras que te quiero decir
        A
se me rompen enseguida
              F#m            E            D
No me quedan flores, me arrancaron la raiz
            A
Se pisaron las semillas
         A            E
Me di cuenta tarde que te perdí
D                 A
  por pensar que te tenía...

E-------------------|---------------------|-----------------------------|
B------5--2---------|------5--2-----------|-----2h3b2------2------------|
G---2--------4b2-4--|---2--------4b2-4/6--|----2------4---4-4-2----7/6--|
D-------------------|---------------------|---2-------------------------|
A-------------------|---------------------|--4--------------------------|
E-------------------|---------------------|-----------------------------|

A                        E
Creo que los bares se deben abrir
D                   A
  para cerrar las heridas
              A               E
y todas las noches, me acuerdo de ti
D                  A
 y te olvido cada día
  F#m
Y vuelvo a ser un loco
E               D               A
para sobrevivir, a la locura de la vida
A                    E                     D
Muchas veces la cabeza, y a menudo la nariz
                 A
Y una voz que me decía

 A         E
Dejate llevar
D             A
 Si el alma te lleva
A             E
Duele el corazón
D             A
 Cuando te lo dejas
    F#m         E
Cerca del final
      D       A
Donde todo empieza

(durante el solo del saxo--> A E D A E D A))

SOLO:
E--------------------------------|-----------------------|
B--12-14-12---------------12-14--|--12-14----------------|
G-----------14-11----11-14-------|--------14---14--------|
D--------------------------------|----------14----12-11--|
A--------------------------------|-----------------------|
E--------------------------------|-----------------------|

E-------------------------------------------|
B-------------12----------------------------|
G-----11h12h13---13b11--13b11-14-14-14-14---|
D--14-----------------14--------------------|
A-------------------------------------------|
E-------------------------------------------|


E--------------------------------|-----------------------|
B--12-14-12---------------12-14--|--12-14----------------|
G-----------14-11----11-14-------|--------14---14--------|
D--------------------------------|----------14----12-11--|
A--------------------------------|-----------------------|
E--------------------------------|-----------------------|

E-------------------------------------------|
B-------------------------------------------|
G-----11h12h13----13-11---------------------|
D--14-------------------14---9h11-9---7-----|
A-------------------------------------------|
E-------------------------------------------|

                  E
Donde todo empiezaaaaa
                    F#m
Donde todo todo empieza
                  E
Donde todo empiezaaaaa
                    F#m
Donde todo todo empieza
                  E
Donde todo empiezaaaaa
                              F#m
No me sale bien la cuenta de la vida
                  E
Donde todo empiezaaaaa
                              F#m
O me sobran noches o me faltan dias
                  E
Donde todo empiezaaaaa
                                 F#m
Todos los minutos que no he estao contigo
                  E
Donde todo empiezaaaaa
                               F#m
Ahora son demonios que viven conmigo
                  E
Donde todo empiezaaaaa
                               F#m
Puedes encontrarme cerca del final
                  E
Donde todo empiezaaaaa
                                F#m
Por que todo empieza cerca del final
                  E
Donde todo empiezaaaaa
                               F#m
Puedes encontrarme cerca del final
                  E
Donde todo empiezaaaaa
                                F#m
Por que todo empieza cerca del final...
E                                 F#m
  Por que todo empieza cerca del final.......


y sigue con E y F#m hasta k se akaba mientras suena el saxo

Weno pos eso es tod d sta cancion, kreo k esta to bn y no suena nada
mal. He hecho lo mjr k e podido los solos y la guitarra y kreo k apenas
tiene fallos. De todas formas agradezko komentarios, kriticas y dudas
a corrimingo@hotmail.com.


              - - DMN - -
Calificar esta versión:
Aviso: Este fichero es trabajo propio de su transcriptor y representa su interpretación personal de la canción. El material contenido en esta página es para exclusivo uso privado, por lo que se prohibe su reproducción o retransmisión, así como su uso para fines comerciales.
Más versiones de Donde Todo Empieza, Fito & Fitipaldis
Donde Todo Empieza
tablatura
Donde Todo Empieza (ver 2)
tablatura
Donde Todo Empieza (ver 3)
tablatura
Descubre más canciones de Fito & Fitipaldis