Corazón Oxidado, Fito & Fitipaldis (tablatura)

Autor: Anónimo | 40229 visualizaciones

He visto que solo está la del disco "Lo más lejos a tu lado",
asi q voy a poner la del directo,
q los acordes son los mismos pero los hace punteando. Ahí va

Riff 1
   SIm         LA            MIm
e|---------------------------------0-----------------|
B|--------3-----2----2p3-2---0---0---3-0-2-0---------|
G|--------4-----2------------0---------------0-------|
D|-----4------------------------2--------------------|
A|--2---------0--------------2-----------------------|
E|---------------------------------------------------|

Riff 2
   SIm         LA            MIm
e|-----------------------------------3-3-3-3-3-------|
B|--------3-----2----2p3-2---0---0---3-3-3-3-3-3-0---|
G|--------4-----2------------0-----------------------|
D|-----4------------------------2--------------------|
A|--2---------0--------------2-----------------------|
E|---------------------------------------------------|


Intro ----> Riff 1 x4

Riff 1
  Todo se derrumba y es tan fácil
Riff 2
  Todos mis castilllos son de arena
Riff 1
  Todo lo que sueño es tan frágil
Riff 1
  Todo lo que bebo es tu ausencia


-------------------Estribillo----------------------
Riff 3
   SOL        LA           SIm
e|---3-3-x-3-----------------2-2-x-2---2-2-x-2----|
B|---3-3-x-3----2-2-x-2------3-3-x-3---3-3-x-3----|
G|---4-4-x-4----2-2-x-2------4-4-x-4---4-4-x-4----|
D|---5-5-x-5----2-2-x-2----4---------4------------|
A|-5----------0---------2-------------------------|
E|------------------------------------------------|

Riff 4
   SOL        LA           SIm
e|---3-3-x-3----------------------2---------------|
B|---3-3-x-3----2-2-x-2-----------------2p3--2----|
G|---4-4-x-4----2-2-x-2---------4---4-------------|
D|---5-5-x-5----2-2-x-2-------4-------------------|
A|-5----------0---------2---2---------------------|
E|------------------------------------------------|

Riff 5
   RE         LA           SIm
e|---------2----------------------2---------------|
B|-----3----------2---------------------2p3--2----|
G|--------------------2---------4---4-------------|
D|---0----------2-------------4-------------------|
A|-0----------0-------------2---------------------|
E|------------------------------------------------|

Riff 6
   SOL        LA           SIm
e|---------3----------------------2---------------|
B|-----3----------2---------------------2p3--2----|
G|--------------------2---------4---4-------------|
D|---5----------2-------------4-------------------|
A|-5----------0-------------2---------------------|
E|------------------------------------------------|


Riff 3
  Y mi pobre corazón de hierro
Riff 4
  Se me fue oxidando con las penas
Riff 5
  Y es que tengo sueño y no me duermo
Riff 6
  Este fuego que ya no calienta
--------------------------------------------------

Riff 1
   Todo lo que canto es tan estéril
Riff 1
  Todas las canciones son la misma
Riff 1
  Muy pocas personas demasiada gente
Riff 1
  Diferente sangre de una misma herida


-------------------Estribillo---------------------
Riff 3
  Y mi pobre corazón de hierro
Riff 4
  Se me fue oxidando con las penas
Riff 5
  Y es que tengo sueño y no me duermo
Riff 6
  Este fuego que ya no calients
--------------------------------------------------


Ahora viene la parte en la que interviene Sicario

   SIm         LA              MIm
e|--2-2--------0-0--------------0-------------------------------|
B|--3-3--------2-2---------2----0--------x-3-3-x-2-2-x-0--------|
G|--4-4--------2-2-------2---2--0----0-0-x-0-0-x-0-0-x-0--------| x2
D|--4-4--------2-2---0p2--------2----2-2-x-2-2-x-2-2-x-2--------|
A|--2-2--------0-0--------------2----2-2-x-2-2-x-2-2-x-2--------|
E|--------------------------------------------------------------|

Mientras Sicario rapea, la guitarra hace algo así:

   SIm         LA          MIm
e|---------------------------------0---------0------------------|
B|--------3------------2-------0-------0-0p3---3-2-0------------|
G|------4------------2----------0--------------------0----------|
D|----4------------2-------------2------------------------------|
A|--2----------(0)---------2------------------------------------|
E|--------------------------------------------------------------|


--------------------------------------------------

Cuando empieza a cantar otra vez ya no hace punteos.

   SIm         LA              MIm
e|--2-2--------0-0--------------0-------------------------------|
B|--3-3--------2-2--------------0--------x-3-3-x-2-2-x-0--------|
G|--4-4--------2-2--------------0----0-0-x-0-0-x-0-0-x-0--------|
D|--4-4--------2-2--------------2----2-2-x-2-2-x-2-2-x-2--------|
A|--2-2--------0-0--------------2----2-2-x-2-2-x-2-2-x-2--------|
E|--------------------------------------------------------------|

SIm             LA          MIm
  Todo se derrumba y es tan fácil
SIm             LA         MIm
 Todos mis castilllos son de arena
SIm             LA         MIm
 Todo lo que sueño es tan frágil
SIm             LA         MIm
 Todo lo que bebo es tu ausencia

e|----------|
B|----------|
G|----------|
D|----------|
A|---2p0----|
E|-------3--|

SOL             LA        SIm
 Y mi pobre corazón de hierro
SOL             LA        SIm
 Se me fue oxidando con las penas
RE                LA           SIm
 Y es que tengo sueño y no me duermo
SOL              LA        SIm
 Este fuego que ya no calienta


SIm            LA           MIm
 Todo lo que canto es tan estéril
SIm            LA           MIm
 Todas las canciones son la misma
SIm             LA             MIm
 Muy pocas personas demasiada gente
SIm           LA                 MIm
 Diferente sangre de una misma herida


SOL             LA        SIm
 Y mi pobre corazón de hierro
SOL             LA        SIm
 Se me fue oxidando con las penas
RE                LA           SIm
 Y es que tengo sueño y no me duermo
SOL              LA        SIm
 Este fuego que ya no calienta



En el saxo lleva el mismo ritmo q la canción en Sim La Mim, hasta podeis
hacer el punteo del principio para acompañarle.

Cuando pega el cambio de ritmo, sigue un La con palm mute,
y a partir de aquí es más o menos como en el disco, menos al final,
que el Fito se mete cada punteillo...


LA            SOL
mi pobre corazon oxidado
   RE
mi pobre corazon encogido
   LA             SOL
Mi pobre corazon todo el daño
   RE
mi pobre corazon todo lo bueno vivido
   LA            SOL
mi pobre corazon lo más malo
   RE
mi pobre corazon lo divino
   LA            SOL
lo valiente lo cobarde lo esperado
   RE
mi virtud y mi defecto mi barranco y mi camino
   LA            SOL
mi pobre corazon no importa q sea pequeño
   RE
mi pobre corazon siempre te echa de menos
   LA            SOL
mi pobre corazon que no le caben ya las penas
   RE
siempre que me duele me lo llevo de verbena
   LA            SOL
mi pobre corazon que me mantiene con vida
   RE
mi pobre corazon siempre la luz encendida
   LA            SOL
mi pobre corazon que aveces quiere salir
   RE
mi pobre corazon que esta enganchado al speed
   LA             SOL
mi pobre corazon en directo
   RE
mi pobre corazon en domingo
   LA                 SOL
mi pobre corazon en pelotas
   RE               FA#
mi pobre corazon en fa sostenido


A partir de aquí es un ritmo usando La Sol Re

--------------------------------------------------------------------
Weno, aquí está, seguro q tiene fallos, así q por favor,
mandarme las correcciones o sugerencias a
Manu_Spoon@hotmail.com
--------------------------------------------------------------------
Calificar esta versión:
Aviso: Este fichero es trabajo propio de su transcriptor y representa su interpretación personal de la canción. El material contenido en esta página es para exclusivo uso privado, por lo que se prohibe su reproducción o retransmisión, así como su uso para fines comerciales.
Más versiones de Corazón Oxidado, Fito & Fitipaldis
Corazón Oxidado
acordes
Corazón Oxidado
tablatura
Corazón Oxidado (ver 2)
tablatura
Corazón Oxidado
bajo
Descubre más canciones de Fito & Fitipaldis