Antes De Que Cuente Diez, Fito & Fitipaldis (tablatura) (ver 4)

Autor: Anónimo | 18369 visualizaciones

Antes de que cuente diez - Fito & Fitipalidis


Intro:


   FA#m             MI               SIm              LA       MI
----------------|----------------|----------------|----------------|
--5/7/5---------|--5/7/5---------|--5/7/5---------|--5/7/5---------|
---------6------|---------6------|---------6------|---------6------|
------------7---|------------7---|------------7---|------------7-6-|
----------------|----------------|----------------|----------------|
----------------|----------------|----------------|----------------|


    FA#m
Puedo escribir y no disimular
    MI
es la ventaja de irse haciendo? viejo
  SIm
no tengo nada para impresionar
      LA               MI
ni por fuera ni por dentro.


    FA#m
La noche en vela va cruzando el mar
    MI
porque los sueños viajan con el viento
  SIm
y en mi ventana sopla en el cristal
      LA               MI
mira a ver si estoy despierto.


  FA#m           MI (traste 7)
-----------------------------
--10---------10---9----------
--11--------------9----------  (x2)
--11---9/11-------9----------
--9--------------------------
-----------------------------


    FA#m
Me perdí en un cruce de palabras
    LA
me anotaron mal la dirección
    MI
ya grabé mi nombre en una bala
    RE
ya probé la carne de cañón

    FA#m
ya lo tengo todo controlado
    LA
y alguien dijo no, no, no, no, no
    MI
que ahora viene el viento de otro lado
    RE
déjame el timón
   MI
y alguien dijo no, no, no


(1)  FA#m                    LA                    SIm
----------------------|----------------------|----------------------|
----------------------|----------------------|----------------------|
--4/6/4-----------6---|--4/6/4-----------6---|--4/6/4-----------6---|
---------7-4----7-----|---------7-4----7-----|---------7-4----7-----|
----------------------|----------------------|----------------------|
----------------------|----------------------|----------------------|

     RE
----------------------|
----------------------|
--4/6/4-----------6---|
----------7--4---7----|
----------------------|
----------------------|


(2)   FA#m                   LA                     SIm
----------------------|----------------------|----------------------|
--5/7/5------------7--|--5/7/5------------7--|--5/7/5------------7--|
---------6------6-----|---------6-------6----|---------6-------6----|
------------7---------|------------7---------|------------7---------|
----------------------|----------------------|----------------------|
----------------------|----------------------|----------------------|

   RE
----------------------|
--5/7/5------------7--|
---------6-------6----|
------------7---------|
----------------------|
----------------------|

Solo de saxo: (x2)


    FA#m                     LA                     SIm
---------------------------|---------------------|-----------------|
---------------------------|-14------------------|--14-------------|
--16----14----------14--16-|------16-(14)-16-----|------16--14-----|
-----------------16--------|---------------------|--------------16-|
---------------------------|---------------------|-----------------|
---------------------------|---------------------|-----------------|

    RE
----------------------|
----------------------|
--14--13--------------|
-----------16--14-----|
----------------------|
----------------------|


    FA#m
Lo que no llegará al final
    LA
serán mis pasos, no el camino.
    MI
No ves que siempre vas detrás
    RE
cuando persigues al destino.

    FA#m
Siempre es la mano y no el puñal
    LA
nunca es lo que pudo haber sido
    MI
no? es porque digas la verdad
    RE
es porque nunca me has mentido.

G-------6--------
D--7/9------9/7--


    LA
No voy a sentirme mal
    MI
si algo no me sale bien
    FA#m
he aprendido a derrapar
    RE
y a chocar con la pared
    LA
que la vida se nos va
    MI
como el humo de ese tren
    FA#m
como un beso en un portal
    RE
antes de que cuente 10.
    LA
Y no volveré a sentirme extraño
    MI
aunque no me llegue a conocer
    FA#m
y no volveré a quererte tanto
    RE
y no volveré a dejarte de querer
    LA
dejé de volar me hundí en el barro
    MI
y entre tanto barro me encontré
    FA#m
algo de calor sin tus abrazos
    RE
ahora sé que nunca volveré.  |B---5/7---5---7----|



(1)  FA#m                    LA                    SIm
----------------------|----------------------|----------------------|
----------------------|----------------------|----------------------|
--4/6/4-----------6---|--4/6/4-----------6---|--4/6/4-----------6---|
---------7-4----7-----|---------7-4----7-----|---------7-4----7-----|
----------------------|----------------------|----------------------|
----------------------|----------------------|----------------------|

     RE
----------------------|
----------------------|
--4/6/4-----------6---|
----------7--4---7----|
----------------------|
----------------------|


(2)   FA#m                   LA                     SIm
----------------------|----------------------|----------------------|
--5/7/5------------7--|--5/7/5------------7--|--5/7/5------------7--|
---------6------6-----|---------6-------6----|---------6-------6----|
------------7---------|------------7---------|------------7---------|
----------------------|----------------------|----------------------|
----------------------|----------------------|----------------------|

   RE
-----------------------------------|
--5/7/5-------5/7/5------5/7/5-----|
--------6-----------6----------6---|
-----------7----------7----------7-|
-----------------------------------|
-----------------------------------|


Durante la progresion (2) el saxo da las mismas notas que en el
solo (1) pero una octava mas arriba
es decir:

(1)  FA#m                   LA                    SIm

--7/9/7---------------|--7/9/7---------------|--7/9/7---------------|
---------10-7------9--|---------10-7------9--|---------10-7------9--|
---------------10-----|---------------10-----|---------------10-----|
----------------------|----------------------|----------------------|
----------------------|----------------------|----------------------|
----------------------|----------------------|----------------------|

    RE

--7/9/7---------------|
---------10-7------9--|
---------------10-----|
----------------------|
----------------------|
----------------------|

Solo de guitarra:


El solo lo subire a parte en otrta transcripcion cuando acabe de
sacarlo. El inicio del solo es mas o menos este:

---------------------------------------|
------------------------------17-17----|
----------13-14-16-14--16(18)---(18)---|
---14/16-------------------------------|
---------------------------------------|
---------------------------------------|

------------------14-------------------|
---------------14----17(19)-17-17(19)--|
---------14-16-------------------------|
---14/16-------------------------------|
---------------------------------------|
---------------------------------------|

------------14-----17(19)--
---------14----14----------
--14-16--------------------
---------------------------
---------------------------
---------------------------

El solo sigue por esta escala por si quereis improvisar:

E--14----16----17--
B--14----15----17--
G--13----14----16--
D--14----16--------
A--14----16----17--
E--14----16----17--

Y hasta hay es lo que me a dado tiempo de sacar, cuando lo acabe lo
subire entero y posiblemente suba tambienun video
a youtube interpretandolo.

Aqui teneis el enlace del tema interpretado por mi:

http://www.youtube.com/watch?v=txn4Q9gFpew&feature=channel_page


Para cualquier duda o sugerencia:

kaiku_comando@hotmail.com
Calificar esta versión:
Aviso: Este fichero es trabajo propio de su transcriptor y representa su interpretación personal de la canción. El material contenido en esta página es para exclusivo uso privado, por lo que se prohibe su reproducción o retransmisión, así como su uso para fines comerciales.
Más versiones de Antes De Que Cuente Diez, Fito & Fitipaldis
Antes De Que Cuente Diez
acordes
Antes De Que Cuente Diez (ver 2)
acordes
Antes De Que Cuente Diez
tablatura
Antes De Que Cuente Diez (ver 2)
tablatura
Antes De Que Cuente Diez (ver 3)
tablatura
Antes De Que Cuente Diez (ver 4)
tablatura
Descubre más canciones de Fito & Fitipaldis