A La Luna Se Le Ve El Ombligo, Fito & Fitipaldis (tablatura)

Autor: Anónimo | 24670 visualizaciones

Version para una Guitarra

Espero qe os guste

e|-0-----------------1----0---------
B|-1-----------------3----1---------
G|-2-----------------2----2---------
D|-2------2h0---0h2--0----2---------
A|-0--0h3-----3-----------0---------
E|----------------------------------

e|------------------------0--------
B|------------------------1--------
G|-------------------1----2--------
D|-------2h0---0h2---2----2--------
A|---0h3-----3-------2----0--------
E|-------------------0-------------

*esto es el principio

e|-----------------------------------0-
B|---------------------------3xx-----1-
G|---2-------0---------------2xx-----2-
D|-----2-2h3---2------2h0----3xx-----2-
A|----------------0h3-----3--2xx-----0-
E|--------------------------------3----

e|---------------------------
B|------------3xx-----1------
G|------------2xx-----2------
D|-------2----3xx-----2------ <-- Donde marco entre parentesis
A|---0h3------2xx-----0------  (se hace)
E|-----------------3---------

*entonces empienza a cantar

LAm               REm            LAm(-----MI)
   No sé cuanto tiempo habré perdido
LAm                 REm                 LAm(----------MI)
   Vivo tan deprisa que se cae de los bolsillos...
LAm               REm       LAm(-----MI)
  A pesar de todo he aprendido
LAm                       REm                 LAm(--------MI)
  Si la noche es clara a la luna se le ve el ombligo


  MI
  Mira que a la luna se le ve el ombligo...

LAm           REm             LAm   MIm
  Ojalá me hubiera dado cuenta antes

*depues del Lam se hace esto:
e|---0---------------
B|---1-------3--3----
G|---2-------2--2----
D|---2--2----3----3--
A|---0----3--2-------
E|-------------------

FA                 SOL         LAm
  No siempre lo urgente es lo importante
*aqui se hace esto despues del Lam:
e|---0-----------------
B|---1-----------------
G|---2--------2~-2-----
D|---2------2------2---
A|---0--0h3----------3-
E|---------------------

FA                MI         SOL       LAm
  tal vez son las brujas tal vez el destino
LAm              SOl         FA
  yo siempre me pierdo en el mismo camino
LAm             SOL        MI
  Siempre en el mismo camino.


e|-0-----------------1----0---------
B|-1-----------------3----1---------
G|-2-----------------2----2---------
D|-2------2h0---0h2--0----2---------
A|-0--0h3-----3-----------0---------
E|----------------------------------

e|------------------------0--------
B|------------------------1--------
G|-------------------1----2--------
D|-------2h0---0h2---2----2--------
A|---0h3-----3-------2----0--------
E|-------------------0-------------


LAm                REm    LAm(-----MI)
  Ahora sólo quiero estar contigo
LAm                          REm       LAm(-----MI)
  Todo mi universo está debajo de tu ombligo
LAm                 REm    LAm(----MI)
  Por tus huesos loco de remate
LAm                       REm       LAm(--------MI)
  Todos los molinos se convierten en gigantes.


LAm                     REm    MI
Quisiera ser tan alto como la luna
LAm                           REm      MI
Mirar por tu ventana cuando estás desnuda
LAm                       REm       MI
Al pasar la barca me dijo el barquero
LAm                           REm       MI
De Africa a Tarifa cuesta mucho más dinero
FA                      SOl5
Mucho más dinero, mucho más dinero,
FA                      SOL5
Mucho más dinero, mucho más dinero...



LAm           REm             LAm   MIm
  Ojalá me hubiera dado cuenta antes
FA                 SOL         LAm
  No siempre lo urgente es lo importante
FA                MI         SOL       LAm
  tal vez son las brujas tal vez el destino
LAm              SOl5         FA
  yo siempre me pierdo en el mismo camino
LAm             SOL5        MI
  Siempre en el mismo camino.

Dedicada a Barbara Perez Sanchez qe la quieroo un montonazoo


Si teneis cuakier duda
*****cbyceibe93@hotmail.com

o pa dar las gracias o felicitacioones
qe siempre anima a subir mas TAB  XDD
Calificar esta versión:
Aviso: Este fichero es trabajo propio de su transcriptor y representa su interpretación personal de la canción. El material contenido en esta página es para exclusivo uso privado, por lo que se prohibe su reproducción o retransmisión, así como su uso para fines comerciales.
Más versiones de A La Luna Se Le Ve El Ombligo, Fito & Fitipaldis
A La Luna Se Le Ve El Ombligo
acordes
A La Luna Se Le Ve El Ombligo
tablatura
Descubre más canciones de Fito & Fitipaldis