Ha Exibido Su Espada, Fernel Monroy (tablatura)

Autor: Anónimo | 32855 visualizaciones



Comparto esta transcripción con todos uds.
Trate de sacarla lo mas exacto posible...
Disfrutenla y vivan la alabanza

e-----------------------------------------
B--10-10-10-13-12-10--13-12-10--13-10-----
G-----------------------------------------

e-----------------------------------------
B--10-10-10-13-12--10-13-12-10-10---------
G-----------------------------------------

e-----------------------------------------
B--10 10 10-9-9-9-9---9-9--10-9---10-9----
G-----------------------------------------

e-----------------------------------------
B--10-10-10-8-----------------------------
G----------------10-10-10-9---------------   x2




Am
Ha exhibido su espada en la batalla
F                                      E
Al enemigo ha hecho correr a defendido a su pueblo y
                 Am    Riff 1
Lo ha hecho con poder //

Am                 Riff 2    F
Ha defendido a su pueblo   lo ha hecho con poder
E                           Am
El derroto potestades es Jesucristo El Rey
Am                 Riff 2    F
Dios a tronado en el cielo ha resonado su voz
E                          F                      E
Los montes temblaron las piedras se hundieron y el mar cayo //

Biss

e-----------------------------------------
B--10-10-10-13-12-10--13-12-10--13-10-----
G-----------------------------------------

e-----------------------------------------
B--10-10-10-13-12--10-13-12-10-10---------
G-----------------------------------------

e-----------------------------------------
B--10 10 10-9-9-9-9---9-9--10-9---10-9----
G-----------------------------------------

e-----------------------------------------
B--10-10-10-8-----------------------------
G----------------10-10-10-9---------------

e-------------------------------------
B-------------------------------------
G-------------------------------------
D--7-9-10-12-7----7-9-10-12-7---------

e-------------------------------------
B-------------------------------------
G-------------------------------------
D--7-9-10-12-7-9-10-12-7-9-10-12-14---

e-------------------------------------
B-------------------------------------
G-------------------------------------
D--7-9-10-12-7----7-9-10-12-7---------

e-------------------------------------
B-------------------------------------
G-------------------------------------
D--7-9-10-12-7-9-10-12-7-9-10-12-14---

e-------------------------------------
B-------------------------------------
G-----14-12----12---------------------
D--12-------15----15-12---------------

***************************************************

Riff 1
e----------------------------------
B--10-10-10-8----------------------
G----------------10-10-10-9--------

Riff 2
e----------------------------------
B----------------------------------
G----------------------------------
D--7-9-10-12-7---------------------

Dios bendiga a cada uno de uds.

Un saludo muy grande a todos mis hermanos de la
Iglesia Pentecostal Poderoso Dios, de Lima Perú.

FCM





Calificar esta versión:
Aviso: Este fichero es trabajo propio de su transcriptor y representa su interpretación personal de la canción. El material contenido en esta página es para exclusivo uso privado, por lo que se prohibe su reproducción o retransmisión, así como su uso para fines comerciales.
Más versiones de Ha Exibido Su Espada, Fernel Monroy
Ha Exibido Su Espada
acordes
Ha Exibido Su Espada (ver 2)
acordes
Ha Exibido Su Espada
tablatura
Descubre más canciones de Fernel Monroy