Cuando Agosto Era 21, Fernando Ubiergo (tablatura)

Autor: Anónimo | 23444 visualizaciones

Diego Tobar Dubost. Antofagasta, chile

OBLIGACION: Se utiliza un capotraste en el traste numero [5],
por lo tanto, al decir [0] (cuerda al aire) me refiero al
traste [5] (cuerda al aire con capotraste en el quinto traste)


Acordes: (utilizen estos, no los que dan la pagina)

   Dm  Gm  C   F   A7  A   Bb
e|-0---1---3---0---0---0---1---|
B|-1---3---0---1---0---0---1---|
G|-2---2---0---0---1---1---2---|
D|-2---0---0---2---0---2---3---|
A|-0-----------3---2---2---3---|
E|-----------------0---0---1---|



---------------------------Intro-----------------------------------------
                                                                         |
   Dm                 Gm               C                                 |
e|-0-----0-----0-----1-----0-----1-----1-------3-------1---|             |
B|---1-----1-----1-----3-----3-----3-----3-------0-------3-|             |
G|-----2-----2-----------2-----2-----------2-------0-------|             |
D|-------2-----------0-----------0-------------0-------0---|             |
A|-0-----------0-----------0-----------0-------------------|             |
E|---------------------------------------------------------|             |
                                                                         |
   F                 Gm                Dm                C       A7      |
e|-0-----0-----0-----1-----0-----1-1---0-----0-----0-0---3-------0-|     |
B|---1-----1-----1-----3-----3-----------1-----1-----------0-------|     |
G|-----0-----0-----------2-----2-----------2-----2-----------0---1-|     |
D|-------------------0-----------0-----------2-----------0---------|     |
A|-3-----------------------0-----------0-----------0-------------2-|     |
E|-----------------------------------------------------------------|     |
                                                                         |
--------------------------Fin intro--------------------------------------



   Dm                Gm                 C
e|-0-----0-----0-----1-----0-----1-----1-------3-------1---|
B|---1-----1-----1-----3-----3-----3-----3-------0-------3-|
G|-----2-----2-----------2-----2-----------2-------0-------|
D|-------2-----------0-----------0-------------0-------0---|
A|-0-----------0-----------0-----------0-------------------|
E|---------------------------------------------------------|
        Dm                         Gm
Se ocultaba en los pilares de los viejos pasadizos Para
 C
esconder el hijo que


   F   A7  Dm     Gm               Dm
e|-0-------------1-----0-----1-----0-----0-----0-----------|
B|-1---0---1-------3-----3-----3-----1-----1-----1---------|
G|-0---1---2---------2-----2-----------2-----2-------------|
D|-----0---2-----0-----------0-----------2-----------------|
A|-3---2---0-----------0-----------0-----------0-----------|
E|---------------------------------------------------------|
    F   A7      Dm        Gm                    Dm
pronto iba a llegar fue difícil esconder, en un pobre delantal


   C       A7      Dm
e|-------3-----------------|
B|-----0---------0-----1-0-|
G|---0---------1-------2-1-|
D|-0---------0-------2-----|
A|---------2-------0-------|
E|-------------------------|
         C     A7  Dm
Los tres meses de más.




    Dm                       Gm
Y salía del colegio, con un siete en la libreta
         C                         F    A7    Dm
Y en el vientre una cometa que pronto querrá volar,
     Gm                  Dm
y se iba a caminar, y se iba a preguntar
        C     A7     Dm
por las calles sin final




 Dm                               Gm
Y se fue a donde un cura quien le dijo era pecado
       C                     F     A7    Dm
Y muy pronto un abogado le hablo de lo legal,
          Gm                             Dm
y fue el profesor de ciencias quien le habló de la inconsciencia
       C   A7
de la juventud...

   Dm                Gm                C                     F
e|-0-----0-----0-----1-----0-----1-----1-------3-------1-----0-|
B|---1-----1-----1-----3-----3-----3-----3-------0-------3---1-|
G|-----2-----2-----------2-----2-----------2-------0---------0-|
D|-------2-----------0-----------0-------------0-------0-------|
A|-0-----------0-----------0-----------0---------------------3-|
E|-------------------------------------------------------------|
  Dm   Gm                             C                    F
actual, de la...                      juven...tud        actual.




        A                 Dm
Los que juzgan, no han sentido
    Bb        Gm          C              F
el amor, el dolor y en el vientre unos latidos.
       A           Dm             Bb
Y se enredan en prejuicios, y el amor,
      Gm      C             A
se quedó, en unos cuantos latidos




---------------------------Intro-----------------------------------------
                                                                         |
   Dm                 Gm                C                                |
e|-0-----0-----0-----1-----0-----1-----1-------3-------1---|             |
B|---1-----1-----1-----3-----3-----3-----3-------0-------3-|             |
G|-----2-----2-----------2-----2-----------2-------0-------|             |
D|-------2-----------0-----------0-------------0-------0---|             |
A|-0-----------0-----------0-----------0-------------------|             |
E|---------------------------------------------------------|             |
                                                                         |
   F                 Gm                Dm                C       A7      |
e|-0-----0-----0-----1-----0-----1-----0-----0-----0-----3-------0-|     |
B|---1-----1-----1-----3-----3-----3-----1-----1-----1-----0-------|     |
G|-----0-----0-----------2-----2-----------2-----2-----------0---1-|     |
D|-------------------0-----------0-----------2-----------0---------|     |
A|-3-----------------------0-----------0-----------0-------------2-|     |
E|-----------------------------------------------------------------|     |
                                                                         |
--------------------------Fin intro--------------------------------------




   Dm                Gm                 C
e|-0-----0-----0-----1-----0-----1-----1-------3-------1---|
B|---1-----1-----1-----3-----3-----3-----3-------0-------3-|
G|-----2-----2-----------2-----2-----------2-------0-------|
D|-------2-----------0-----------0-------------0-------0---|
A|-0-----------0-----------0-----------0-------------------|
E|---------------------------------------------------------|
    Dm                           Gm
Y sobraron los consejos que le hablaban de pastillas
       C
Y una vieja mujercilla que el


   F   A7  Dm     Gm               Dm
e|-0-------------1-----0-----1-----0-----0-----0-----------|
B|-1---0---1-------3-----3-----3-----1-----1-----1---------|
G|-0---1---2---------2-----2-----------2-----2-------------|
D|-----0---2-----0-----------0-----------2-----------------|
A|-3---2---0-----------0-----------0-----------0-----------|
E|---------------------------------------------------------|
    F   A7      Dm        Gm                    Dm
trabajo lo hace bien, no falto la buena amiga, esa amiga entre comillas


   C       A7      Dm
e|-------3-----------------|
B|-----0---------0-----1-0-|
G|---0---------1-------2-1-|
D|-0---------0-------2-----|
A|---------2-------0-------|
E|-------------------------|
         C     A7  Dm
que le dio una dirección.




    Dm                            Gm
Y salió desde el colegio, en una fría mañana
       C                       F    A7   Dm
Cuando la vieja campana aún no daba su talán,
         Gm                        Dm
mientras el profe de ciencias Hablaba de la inconsciencia
      C    A7    Dm
de la juventud actual.




 Dm                           Gm
Cuando Agosto era 21, la encontraron boca arriba
        C                  F     A7   Dm
Con la mirada perdida y su viejo delantal,
        Gm                   Dm
y en el bolso de colegio dibujado un corazón
      C  A7
que decía tú...

   Dm                Gm                C                     F
e|-0-----0-----0-----1-----0-----1-----1-------3-------1-----0-|
B|---1-----1-----1-----3-----3-----3-----3-------0-------3---1-|
G|-----2-----2-----------2-----2-----------2-------0---------0-|
D|-------2-----------0-----------0-------------0-------0-------|
A|-0-----------0-----------0-----------0---------------------3-|
E|-------------------------------------------------------------|
  Dm                 Gm                          C          F
...Y yo...                                   que decía tú y yo




        A                 Dm
Los que juzgan, no han sentido
    Bb        Gm          C              F
el amor, el dolor y en el vientre unos latidos.
       A           Dm             Bb
Y se enredan en prejuicios, y el amor...


e|-0---1---0-----------0------------------------------------|
B|-------------3---1-------------------------------------3--|
G|-------------------------2-4-5-[2-4-5]-2-4-5-[2-4-5]------|
D|----------------------------------------------------------| X3
A|----------------------------------------------------------|
E|----------------------------------------------------------|
Calificar esta versión:
Aviso: Este fichero es trabajo propio de su transcriptor y representa su interpretación personal de la canción. El material contenido en esta página es para exclusivo uso privado, por lo que se prohibe su reproducción o retransmisión, así como su uso para fines comerciales.
Más versiones de Cuando Agosto Era 21, Fernando Ubiergo
Cuando Agosto Era 21
acordes
Cuando Agosto Era 21 (ver 2)
acordes
Cuando Agosto Era 21
tablatura
Descubre más canciones de Fernando Ubiergo