Para Ti, Feeling Every Sunset (tablatura)

Autor: Enoxth | 33732 visualizaciones

Para Ti
   
INTRO:
1: |-2-2-2-2-2-2-2-2-0-0-0-0-0-0-0------------------------------|
2: |-------------------------------3-3-3-3-3-3-3-3-2-2-2-2-2-2-2|
3: |------------------------------------------------------------|
4: |------------------------------------------------------------|
5: |------------------------------------------------------------|
6: |------------------------------------------------------------|

1: |-----------------0-0-0-0-0-0-0-| x2
2: |-3-3-3-3-3-3-3-3---------------|
3: |-------------------------------|
4: |-------------------------------|
5: |-------------------------------|
6: |-------------------------------|


ReM           A        Bm       A    Bm-A
Sé que tu vida hoy está mal así
ReM                 A             Bm       A    Bm-A
Sé que hay días que te quieres ir de aquí
ReM           A         Bm           A          Bm-A
Pero cuando todo este mal ahí estaré          
ReM           A             Bm          A     Bm-A
Y si tú te derrumbas, te atrápare, te apoyare

coro:
ReM                 A                     Bm
Sé que la vida se puede tornar hoy muy mal
A       Bm-A
Pero no temas
ReM                      A                     Bm          A
que siempre puedes confiar que yo allí voy a estar para ti


ReM                  A              Bm       A    Bm-A
Sé que hay cosas que no entiendo bien de ti
ReM           A             Bm             A    Bm-A
Pero esperare hasta entender que pasa aquí
ReM             A        Bm            A    Bm-A
Yo te entregare solo amor y comprensión
ReM          A          Bm           A    Bm-A
Solo te pido que me abras tu corazón

coro:
ReM                 A                     Bm
Sé que la vida se puede tornar hoy muy mal
ReM       Bm-A
Pero no temas
ReM                      A                     Bm          A
que siempre puedes confiar que yo allí voy a estar para ti

Bm                     A               Bm            A
Si sientes que no das mas y todo acabara debes recordar
Bm                     A               Bm                  A
que si miras hacia atrás me veras al final y ahí comprenderás
          ReM   A  Bm     A Bm   A  ReM  A  Bm     A  Bm-A
que al finaaaaaaaal  sola no estaráaaaaaas jamás





CORO:
ReM                 A                     Bm
Sé que la vida se puede tornar hoy muy mal
A       Bm-A
Pero no temas
ReM                      A                     Bm          A
que siempre puedes confiar que yo allí voy a estar para ti

Bm                     A               Bm            A
Si sientes que no das mas y todo acabara debes recordar
Bm                     A               Bm                  A
que si miras hacia atrás me veras al final y ahí comprenderás
          ReM   A  Bm     A Bm   A  ReM  A  Bm     A  Bm-A
que al finaaaaaaaal  sola no estaráaaaaaas jamás


Final 1(opcional): / ReM -A-Bm-A-Bm/x3 ReM

Final 2:
1: |-2-2-2-2-2-2-2-2-0-0-0-0-0-0-0------------------------------|
2: |-------------------------------3-3-3-3-3-3-3-3-2-2-2-2-2-2-2|
3: |------------------------------------------------------------|
4: |------------------------------------------------------------|
5: |------------------------------------------------------------|
6: |------------------------------------------------------------|

1: |-----------------0-0-0-0-0-0-0-| x2
2: |-3-3-3-3-3-3-3-3---------------|
3: |-------------------------------|
4: |-------------------------------|
5: |-------------------------------|
6: |-------------------------------|
Calificar esta versión:
Aviso: Este fichero es trabajo propio de su transcriptor y representa su interpretación personal de la canción. El material contenido en esta página es para exclusivo uso privado, por lo que se prohibe su reproducción o retransmisión, así como su uso para fines comerciales.
Más versiones de Para Ti, Feeling Every Sunset
Para Ti
acordes
Para Ti
tablatura
Descubre más canciones de Feeling Every Sunset