Extremaydura, Extremoduro (tablatura)

Autor: Anónimo | 37105 visualizaciones



+ Tabulados de made in spain!                   +
+ [http://mades.kaos.es]                        +
+++++++++++++++++++++++++++++++++++++++++++++++++

        HOLA, AQUÍ TE MANDO OTRA FORMA DE TOCAR ESTE TEMA POR SI
   TE INTERESA, PRUEVALO Y DIME COMO TE HA IDO.
      
   INTRO                         
E -------------------------------------------------------------|
B -------------------------------------------------------------|
G -------------------------------------------------------------|
D --------------------------4--4-4--4--------------------------|
A ---------6---------4------4--4-4--4---------6----------4-----|
E ----7--7---7--5--5---5----2--2-2--2----7--7---7---5--5---5---|
                   
                 FIN INTRO
E --------------------------|----------------------------------|
B --------------------------|----------------------------------|
G --------------------------|----------------------------------|
D -------5-----6-----7--8---|------3....-----------------------|
A -------5-----6-----7--8---|------3....-----------------------|
E ----0--3--0--4--0--5--6---|------2....-----------------------|
  Repetir la intro hasta       ...habia jiñado


      SI    LA   FA#   MI SOL MI SOL# MI LA LA#
      Cago Dios         en Cáceres y en Badajoz

      SI    LA   FA#   MI SOL MI SOL# MI LA LA#
      Cago Dios         en Cáceres y en Badajoz

      SI    LA   FA#   MI SOL MI SOL# MI LA LA#
      Cago Dios         en Cáceres y en Badajoz

      SI    LA   FA#   MI SOL MI SOL# MI LA LA#
      Cago Dios         en Cáceres y en Badajoz

      SI    LA   FA#   MI SOL MI SOL# MI LA LA#
                        En Cáceres y en Badajoz

      SI    LA   FA#    FA#.........
                        En Cáceres y en Badajoz
 
      SI                                  LA
      Tenemos el agua al cuello con tanto puto pantano
      SOL#                          FA#
      las bellotas radiactivas nos quedamos sin marranos
      SI                                  LA
      Tierra de conquistadores no nos quedan más cojones 
      SOL#                          FA#
      si no puedes irte lejos te quedarás sin pellejo 
      SI                                  LA
      Tierra de conquistadores no nos quedan más cojones 
      SOL#                          FA#
      bebe zumo de bellotas idiota

      El segundo estribillo se toca igual que el primero.





Calificar esta versión:
Aviso: Este fichero es trabajo propio de su transcriptor y representa su interpretación personal de la canción. El material contenido en esta página es para exclusivo uso privado, por lo que se prohibe su reproducción o retransmisión, así como su uso para fines comerciales.
Más versiones de Extremaydura, Extremoduro
Extremaydura
acordes
Extremaydura
tablatura
Descubre más canciones de Extremoduro