El Duende Del Parque, Extremoduro (tablatura)

Autor: Anónimo | 26551 visualizaciones



Tab by SERGIO

 Esta es la version del dvd en directo k venia con el ultimo disco.
La he sacao porke la ke hay es una puta mierda
 no estan ni los acordes bien,no se como dejan mandar semejante mierda


 pm = Palm mute
 h = hammer-on
 p = pull off
 br = bend and release(hacer un bend y devolver la nota a su tono original)
 ~~ = vibrato



 Intro:

 D|------------------5------------------|
 A|---------2-------5------------2------| x2
 E|-0-3-0-3---3-2--3-----0-3-0-3---3-2--|


 Punteo 1:

   Guitarra 1
   E             F#            G                                 A
 e|-15------------15-----------15-14-12-----------------------------------------------|
 B|----12h13~~-------13h15~~------------15-13-12h13p12--------------------------------|
 G|----------------------------------------------------14-12-11-12-11h12p11-----------|
 D|-------------------------------------------------------------------------14-12-14--| x2
 A|-----------------------------------------------------------------------------------|
 E|-----------------------------------------------------------------------------------|

  Guitarra 2
 e|---------------------------------------------------------------------------|
 B|---------------------------------------------------------------------------|
 G|--------------------------------------------4--5--7--5--4h5p4--------------|
 D|-------4~~--------4--5~~-----------4--5--7---------------------7--5--4-----|
 A|-5--7----------7-------------5--7---------------------------------------7--|
 E|---------------------------------------------------------------------------|
   pm..          pm..


   Guitarra 1:
 e|-----------------------------------------------------------------------------------
 B|-----12-12---12-12---12-14br-12-14br----12-14br------12-14br---------------------------
 G|-----12-12---12-12---12-14br-12-14br----12-14br------12-14br--------12-11h12p11--------
 D|--14------14------14-----------------14-----------14-------------14-------------14~~---
 A|-----------------------------------------------------------------------------------
 E|-----------------------------------------------------------------------------------

 e|------------------------------------------------------------------------------------|
 B|--------------------------------------12-14-14br-12----12-12----12-12----12-12------|
 G|-----12-11h12p11-12------12-14--------12-14-14br-12----12-12----12-12----12-12------|
 D|--14------------------14--------12-14---------------14-------14-------14-------14---|
 A|------------------------------------------------------------------------------------|
 E|------------------------------------------------------------------------------------|

  Guitarra 2: Toca los acordes E F# G A



 E                             F#                             G                A
 Pasan las cosas al compás del tiempo y yo no me entretengo ni en mirar ¿pa qué?
        E                       F#                       G                      A
 Cojo mi ropa ¿dónde vas? ¿no ves? que está cambiando el viento otro lugar ¿y qué?

 C                         D
 Que a codo con la sinrazón voy navegando,
 C                           D
 que a codazos con mi corazón voy dando tumbos,
 C                             D
 que encuentro un poco de calor hoy no me derrumbo,
 E             F#         G          B
 que una chica me sonríe demasiado para mí.
 E        B
    para MI

 E                              F#                            G                    A                   B
 No arranco flores para tí ¿qué culpa tiene este jardín?si a tí te va coleccionar bellezas de origen natural.
 E                              F#                           G                 
 Me gusta porderte cantar, no me gusta no poderte chupar y si no te puedo ver, 
      A                         B
  no me gusta, no me gusta, no me gusta ná.
 E                       F#        G                           A                B
 Afuera de mi casa tengo flores, sembradas en el campo como a ellas les gusta estar.
 E                            F#    G                            A          B
 Enciendo muy temprano los motores me pongo muy contento si las voy a visitar. ¡JA!


 Intro + Punteo 1

       E                  F#                         G              A
 No me conoces vine ayer de Marte soy un duende del parque nada más.
        E                  F#                      G                  A
 Saco los dientes soy capaz de andar en contra la corriente aparta ya.


 Que a codo con la sinrazon......

 No arranco flores para ti.....

 Afuera de mi casa tengo flores.....


 Intro



                        PARA CUALKIER DUDA:

                          TRIBAL2@HOTMAIL.COM





Calificar esta versión:
Aviso: Este fichero es trabajo propio de su transcriptor y representa su interpretación personal de la canción. El material contenido en esta página es para exclusivo uso privado, por lo que se prohibe su reproducción o retransmisión, así como su uso para fines comerciales.
Más versiones de El Duende Del Parque, Extremoduro
El Duende Del Parque
acordes
El Duende Del Parque
tablatura
Descubre más canciones de Extremoduro