Cerca Del Suelo, Extremoduro (bajo)

Autor: Anónimo | 37469 visualizaciones



Tab para BAJO

Riff de la intro

G:--------------------------------
D:-------------------0-0-0-0------
A:0--0-2--0-2-3--2-3--------3-2-0-
E:--3-----------------------------

Esto se repite hasta el estribillo

Riff del estribillo

G:-----------------------
D:3-2-0--------------0-2-
A:-----3--2-0-----3-3----
E:------------3--3-3-----

Riff de la estrofa

G:-------------------0-0-0-0-----
D:0--0-2--0-2-3--2-3--------3-2-0
A:--2----------------------------
E:-------------------------------

Riff del puente

G:----------------------------------------------------------------------------------
D:----------------------------------------------------------------------------------
A:5-5-5-5-5-5-5-5-5-5-5-5-5-5-5--------------------------------------------------0-3
E:-----------------------------5-5-5-5-5-5-5-5-5-5-5-5-5-5-5-1--1--0-1--1--1--1-3---





Calificar esta versión:
Aviso: Este fichero es trabajo propio de su transcriptor y representa su interpretación personal de la canción. El material contenido en esta página es para exclusivo uso privado, por lo que se prohibe su reproducción o retransmisión, así como su uso para fines comerciales.
Más versiones de Cerca Del Suelo, Extremoduro
Cerca Del Suelo
acordes
Cerca Del Suelo
bajo
Descubre más canciones de Extremoduro