Buscando Una Luna, Extremoduro (tablatura)

Autor: Anónimo | 46617 visualizaciones



+ Tabulados de made in spain!                   +
+ [http://mades.kaos.es]                        +
+++++++++++++++++++++++++++++++++++++++++++++++++

      Aquí os mando mi versión de Buscando una Luna de Extremoduro (el mejor
grupo de rock, con diferencia). Es una mezcla de los punteos y los acordes. A
mi parecer suena bastante bien, ahí va:

      RIFF de la Intro: (s=silde, &=ligado y x=bending)

   e |------5--------7--------3---------|
   B |------3--------5--------5-----5---|
   G |---4-----4--6-----6--4-----4--6---|
   D |---5-----5--7-----7--5--------7---|
   A |---------------------0------------| 
   E |----------------------------------|


   e |------------------------------------------|
   B |--10--8--7--------------------------------|
   G |------------7--9-----7-----7s6--4--6&4s2--|
   D |------------------9-----9-----------------|
   A |------------------------------------------| 
   E |------------------------------------------|


   G*                 A
   Salgo a pasear por dentro de mí,    
          G*                 
   veo paisajes que de un libro   (G*=G con bajo en A, entonces: X05433)        
        A
   de memoria me aprendí:

   G*                 A
   Llanuras bélicas y páramos de asceta
        G*                                 A
   - no fue por estos campos el bíblico jardín -;

 
   e |----------------------------------------------12--10--9s7--|
   B |--8&10--8--7--8--------------------------------------------|
   G |-----------------7&9--7--6-----8&10--8--7--8---------------|
   D |----------------------------9------------------------------|
   A |-----------------------------------------------------------| 
   E |-----------------------------------------------------------|
  
       G*                         A
   son tierras para el águila, un trozo de planeta
       G*                     A7
   por donde cruza errante la sombra de Caín"

                                                          x
   e |-----------------7------------------------------7--10--7------------
   B |--10--7--10--10-----------7--------------7--10------------10--------
   G |--------------------7--9-----------7--9-----------------------9--7--
   D |-----------------------------7--9-----------------------------------
   A |-------------------------------------------------------------------- 
   E |--------------------------------------------------------------------

      -------------------------------------------|
      ----------------------7--8--7-----7--------|
      --7--7--6-------7--9-----------9-----9--7--|
      -----------7--9----------------------------|
      -------------------------------------------|
      -------------------------------------------|


  G             A
   Bajé las escaleras, sí, de dos en dos,
  G                  A
   perdí al bajar el norte y la respiración;
  G           A
   Y ¿por las noches que harás?
         G                             A
   - las paso descosiendo, aquí hay un arco por tensar -.
        D      G6                      D                   (G6=320000)
   ¡Que yo me acuerdo entodavía cuando te besaba!
       A7
   ¡La cago, vuelvo a tiritar!
  D          G6                        D
   ¡Si tú no te juraras siempre que yo te faltaba!
      Em7
   ¡A veces todo es tan normal!


  G             A
   Bajé las escaleras, sí, de dos en dos,
  G                  A
   perdí al bajar el norte y la respiración;
  G           A
   Y ¿por las noches que harás?
         G                             A
   - las paso descosiendo, aquí hay un arco por tensar -.  

  D       A           G
   Y hago colas sin parar
             A           G
   en la puerta de algún bar 
           F#m7
   yo tó borracho consumo las horas,
Em7                          A7
   mientras encuentro alguna luna que ande sola.
        D      G6                      D
   ¡Que yo me acuerdo entodavía cuando te besaba!
       A7
   ¡La cago, vuelvo a tiritar!
  D          G                         D
   ¡Si tú no te juraras siempre que yo te faltaba!
      Em7
   ¡a veces todo es tan normal!

  D            G6                      D
   ¡Que yo me acuerdo entodavía cuando te besaba!
       A7
   ¡La cago, vuelvo a tiritar!
  D                G                      D
   ¡Que no, que ha sido un momentito sólo de bajada!
        Em7
   ¡Que aquí no pasa nada!
 
  D       A           G
   Y hago colas sin parar
             A           G
   en la puerta de algún bar 
           F#m7
   yo tó borracho consumo las horas,
Em7                          A7
   mientras encuentro alguna luna que ande sola.
        D      G6                      D
   ¡Que yo me acuerdo entodavía cuando te besaba!
       A7
   ¡La cago, vuelvo a tiritar!
  D          G                         D
   ¡Si tú no te juraras siempre que yo te faltaba!
      Em7
   ¡a veces todo es tan normal!

  D            G6                      D
   ¡Que yo me acuerdo entodavía cuando te besaba!
       A7
   ¡La cago, vuelvo a tiritar!
  D                G                      D
   ¡Que no, que ha sido un momentito sólo de bajada!
        Em7
   ¡Que aquí no pasa nada!

  D       G6       D        A7
   NANANA NANANANA NANANANA NA.  (2 BIS)



      Pues eso es todo, si os portáis bien y me da el venazo la próxima
será BriBriBliBli (En El Más Sucio Rincón De Mi Negro Corazón). Un saludo
para los amantes de Extremo.
Alex J.R. <axlrose@mx3.redestb.es>





Calificar esta versión:
Aviso: Este fichero es trabajo propio de su transcriptor y representa su interpretación personal de la canción. El material contenido en esta página es para exclusivo uso privado, por lo que se prohibe su reproducción o retransmisión, así como su uso para fines comerciales.
Más versiones de Buscando Una Luna, Extremoduro
Buscando Una Luna
tablatura
Buscando Una Luna (ver 2)
tablatura
Descubre más canciones de Extremoduro