Ama, Ama Y Ensancha El Alma, Extremoduro (bajo)

Autor: Anónimo | 35693 visualizaciones



Bajo

G||--------------------------|--------------------------|
D||--------------------------|--------------------------|
A||--0--0--0--0--0--0--0--0--|--0--0--0--0--0--0--0--0--|
E||--------------------------|--------------------------|



--------------------------|--------------------------|
--------------------------|--------------------------|
--0--0--0--0--0--0--0--0--|--0--0--0--0--0--0--0--0--|
--------------------------|--------------------------|



--------------------------|--------------------------|
--------------------------|--------------------------|
--0--0--0--0--0--0--0--0--|--0--0--0--0--0--0--0--0--|
--------------------------|--------------------------|



--------------------------|--------------------------|
--------------------------|--------------------------|
--0--0--0--0--0--0--0--0--|--0--0--0--0--0--0--0--0--|
--------------------------|--------------------------|



--------------------------|--------------------------|
--------------------------|--------------------------|
--0--0--0--0--0--0--0--0--|--0--0--0--0--0--0--0--0--|
--------------------------|--------------------------|



--------------------------|--------------------------|-------------------------|
--------------------------|--------------------------|-------------------------|
--0--0--0--0--0--0--0--0--|--0--0--0--0--0--0--0--0--|--0--0--0--0--0--0--0/---|
--------------------------|--------------------------|-------------------------|



----------------------------------|----------------------------------|
----------------------------------|----------------------------------|
--12--12--12--12--12--12--12--12--|--12--12--12--12--12--12--12--12--|
----------------------------------|----------------------------------|



----------------------------------|----------------------------------|
----------------------------------|----------------------------------|
--12--12--12--12--12--12--12--12--|--12--12--12--12--12--12--12--12--|
----------------------------------|----------------------------------|



----------------------------------|--------------------------|
----------------------------------|--------------------------|
--12--12--12--12--12--12--12--12--|--------------------------|
----------------------------------|--0--0--0--0--0--0--0--0--|



--------------------------|--------------------|--------------------------|
--------------------------|--------------------|--------------------------|
--------------------------|----4----5----------|--0--0--0--0--0--0--0--0--|
--2--2--2--2--2--2--2--2--|--------------------|--------------------------|



--------------------------|--------------------------|--------------------|
--------------------------|--------------------------|--------------------|
--------------------------|--------------------------|----4----5----------|
--0--0--0--0--0--0--0--0--|--2--2--2--2--2--2--2--2--|--------------------|



--------------------------|--------------------------|
--------------------------|--------------------------|
--0--0--0--0--0--0--0--0--|--------------------------|
--------------------------|--0--0--0--0--0--0--0--0--|



--------------------------|--------------------------|
--------------------------|--------------------------|
--------------------------|--4--4--4--5--5--5--5--5--|
--2--2--2--2--2--2--2--2--|--------------------------|



--------------------------|--------------------------|
--------------------------|--------------------------|
--0--0--0--0--0--0--0--0--|--------------------------|
--------------------------|--0--0--0--0--0--0--0--0--|



--------------------------|--------------------------|
--------------------------|--------------------------|
--------------------------|--4--4--4--5--5--5--5--5--|
--2--2--2--2--2--2--2--2--|--------------------------|



--------------------------|--------------------------|
--------------------------|--------------------------|
--0--0--0--0--0--0--0--0--|--2--2--2--2--2--2--2--2--|
--------------------------|--------------------------|



--------------------------|--------------------|--------------------------|
--------------------------|--2------0----------|--------------------------|
--4--4--4--4--4--4--4--4--|--------------------|--0--0--0--0--0--0--0--0--|
--------------------------|--------------------|--------------------------|



--------------------------|--------------------------|--------------------|
--------------------------|--------------------------|--2------0----------|
--2--2--2--2--2--2--2--2--|--4--4--4--4--4--4--4--4--|--------------------|
--------------------------|--------------------------|--------------------|



--------------------------|--------------------------|
--------------------------|--------------------------|
--0--0--0--0--0--0--0--0--|--------------------------|
--------------------------|--0--0--0--0--0--0--0--0--|



--------------------------|--------------------------|
--------------------------|--------------------------|
--------------------------|--4--4--4--5--5--5--5--5--|
--2--2--2--2--2--2--2--2--|--------------------------|



--------------------------|--------------------------|
--------------------------|--------------------------|
--0--0--0--0--0--0--0--0--|--------------------------|
--------------------------|--0--0--0--0--0--0--0--0--|



--------------------------|--------------------------|
--------------------------|--------------------------|
--------------------------|--4--4--4--5--5--5--5--5--|
--2--2--2--2--2--2--2--2--|--------------------------|



--------------------------|--------------------------|
--------------------------|--------------------------|
--0--0--0--0--0--0--0--0--|--2--2--2--2--2--2--2--2--|
--------------------------|--------------------------|



--------------------------|--------------------|--------------------------|
--------------------------|--2------0----------|--------------------------|
--4--4--4--4--4--4--4--4--|--------------------|--0--0--0--0--0--0--0--0--|
--------------------------|--------------------|--------------------------|



--------------------------|--------------------------|--------------------|
--------------------------|--------------------------|--2------0----------|
--2--2--2--2--2--2--2--2--|--4--4--4--4--4--4--4--4--|--------------------|
--------------------------|--------------------------|--------------------|



--------------------------|--------------------------|
--------------------------|--------------------------|
--0--0--0--0--0--0--0--0--|--------------------------|
--------------------------|--0--0--0--0--0--0--0--0--|



--------------------------|--------------------------|
--------------------------|--------------------------|
--------------------------|--4--4--4--5--5--5--5--5--|
--2--2--2--2--2--2--2--2--|--------------------------|



--------------------------|--------------------------|
--------------------------|--------------------------|
--0--0--0--0--0--0--0--0--|--------------------------|
--------------------------|--0--0--0--0--0--0--0--0--|



--------------------------|--------------------------|
--------------------------|--------------------------|
--------------------------|--4--4--4--5--5--5--5--5--|
--2--2--2--2--2--2--2--2--|--------------------------|



--------------------------|--------------------------|
--------------------------|--2--2--2--2--2--2--2--2--|
--0--0--0--0--0--0--0--0--|--------------------------|
--------------------------|--------------------------|



--------------------------|--------------------------|
--------------------------|--------------------------|
--4--4--4--4--4--4--4--4--|--5--5--5--5--5--5--5--5--|
--------------------------|--------------------------|



--------------------------|--------------------------|
--------------------------|--2--2--2--2--2--2--2--2--|
--0--0--0--0--0--0--0--0--|--------------------------|
--------------------------|--------------------------|



--------------------------|--------------------------|
--------------------------|--------------------------|
--4--4--4--4--4--4--4--4--|--5--5--5--5--5--5--5--5--|
--------------------------|--------------------------|



--------------------------|--------------------------|
--------------------------|--2--2--2--2--2--2--2--2--|
--0--0--0--0--0--0--0--0--|--------------------------|
--------------------------|--------------------------|



--------------------------|--------------------------|
--------------------------|--------------------------|
--4--4--4--4--4--4--4--4--|--5--5--5--5--5--5--5--5--|
--------------------------|--------------------------|



--------------------------|--------------------------|
--------------------------|--2--2--2--2--2--2--2--2--|
--0--0--0--0--0--0--0--0--|--------------------------|
--------------------------|--------------------------|



--------------------------|--------------------------|
--------------------------|--------------------------|
--4--4--4--4--4--4--4--4--|--5--5--5--5--5--5--5--5--|
--------------------------|--------------------------|



--------------------------|--------------------------|
--------------------------|--2--2--2--2--2--2--2--2--|
--0--0--0--0--0--0--0--0--|--------------------------|
--------------------------|--------------------------|



--------------------------|--------------------------|
--------------------------|--------------------------|
--4--4--4--4--4--4--4--4--|--5--5--5--5--5--5--5--5--|
--------------------------|--------------------------|



--------------------------|--------------------------|
--------------------------|--2--2--2--2--2--2--2--2--|
--0--0--0--0--0--0--0--0--|--------------------------|
--------------------------|--------------------------|



--------------------------|--------------------------|
--------------------------|--------------------------|
--4--4--4--4--4--4--4--4--|--5--5--5--5--5--5--5--5--|
--------------------------|--------------------------|



--------------------------|--------------------------|
--------------------------|--------------------------|
--0--0--0--0--0--0--0--0--|--------------------------|
--------------------------|--0--0--0--0--0--0--0--0--|



--------------------------|--------------------|--------------------------|
--------------------------|--------------------|--------------------------|
--------------------------|----4----5----------|--0--0--0--0--0--0--0--0--|
--2--2--2--2--2--2--2--2--|--------------------|--------------------------|



--------------------------|--------------------------|--------------------|
--------------------------|--------------------------|--------------------|
--------------------------|--------------------------|----4----5----------|
--0--0--0--0--0--0--0--0--|--2--2--2--2--2--2--2--2--|--------------------|



-------------------|-------------------|-------------------|-------------------|
-------------------|-------------------|-------------------|-------------------|
--0----------------|-------------------|-------------------|--5----------------|
-------------------|--0----------------|--2----------------|-------------------|



-------------------|-------------------|-------------------|-------------------|
-------------------|-------------------|-------------------|-------------------|
--4----------------|--2----------------|-------------------|-------------------|
-------------------|-------------------|--0----------------|--4----------------|



-------------------||
-------------------||
-------------------||
--5----------------||





Calificar esta versión:
Aviso: Este fichero es trabajo propio de su transcriptor y representa su interpretación personal de la canción. El material contenido en esta página es para exclusivo uso privado, por lo que se prohibe su reproducción o retransmisión, así como su uso para fines comerciales.
Más versiones de Ama, Ama Y Ensancha El Alma, Extremoduro
Ama, Ama Y Ensancha El Alma
acordes
Ama, Ama Y Ensancha El Alma (ver 2)
acordes
Ama, Ama Y Ensancha El Alma
tablatura
Ama, Ama Y Ensancha El Alma
bajo
Descubre más canciones de Extremoduro