A Fuego, Extremoduro (tablatura) (ver 2)

Autor: Anónimo | 38241 visualizaciones



Hola a todos, me decido a hacer esta transcripcion porque es mi cancion
favorita y no he visto ninguna que realmente suene igual.
A ver si os gusta ;)

INTRO
Guitarra 1
e|-----------------------------------  ----------------------------------
B|-----------------------------------  ----------------------------------
G|----------------3---3-3-5---5-5-7--  ---------------3---3-3-5---5-5-7--
D|--5-5-5-7---7-7-3---3-3-5---5-5-7--  -5-5-5-7---7-7-3---3-3-5---5-5-7--
A|--5-5-5-7---7-7-1---1-1-3---3-3-5--  -5-5-5-7---7-7-1---1-1-3---3-3-5--
E|--3-3-3-5---5-5--------------------  -3-3-3-5---5-5--------------------


Guitarra 2
e|-----------------------------------  ----------------------------------
B|-----------------------------------  ----------------------------------
G|-----------------7---7-7-9---9-9-11  --12---14------15------17------19-
D|9-9-9-11---11-11-7---7-7-9---9-9-11  --X----X-------X-------X-------X--
A|9-9-9-11---11-11-5---5-5-7---7-7-9-  --10---12------13------15------17-
E|7-7-7-9----9--9--------------------  ----------------------------------





RIFF 1a                                      RIFF 1b
Guitarra 1
e|-------------------------------------      e|---------------------------
B|-------------------------------------      B|---------------------------
G|-------------------------------------      G|---------------------------
D|-------------------------------------      D|---------------------------
A|--5-5-5-5--7-7-7-7-------------------      A|--5-5-5-5--7-7-7-7---------
E|--3-3-3-3--5-5-5-5-------------------      E|--3-3-3-3--5-5-5-5---------
  pm_________________                          pm_________________


Guitarra 2
e|-------------------------------------      e|---------------------------
B|-------------------------------------      B|---------------------------
G|-------------------------------------      G|---------------------------
D|-------------------------------------      D|-----------5--------4------
A|-----------5------------5------------      A|--------5------5--5----5---
E|--3--3--6------5--5--8---------------      E|--6--6---------------------




RIFF 2a                                 RIFF 2b
Guitarra 1
e|------------------------------------  ----------------------------------
B|------------------------------------  ----------------------------------
G|------------------------------------  ----------------------------------
D|--5--7----5--7-------5--7----5--7---  -5--7----5--7-------5--7----5--7--
A|--5--7----5--7-------5--7----5--7---  -5--7----5--7-------5--7----5--7--
E|--3--5----3--5-------3--5----3--5---  -3--5----3--5-------3--5----3--5--


Guitarra 2
e|-----------------------------------  ------------------------------------
B|-----------------------------------  ------------------------------------
G|--3--5---12--11-----12--14---12--11  -12--11---12--11-----12--11---12--11
D|--X--X---X---X------X---X----X---X-  -X---X----X---X------X---X----X---X-
A|--1--3---10--9------10--12---10--9-  -10--9----10--9------10--9----10--9-
E|-----------------------------------  ------------------------------------





RIFF 3
Guitarra 1
e|------------------------------------------------
B|------------------------------------------------
G|--5----5----5--------5-----7----7----7----------
D|--5----5----5--------5-----7----7----7----------
A|--3----3----3--------3-----5----5----5----------
E|------------------------------------------------


Guitarra 2
e|------------------------------------------------
B|------------------------------------------------
G|-------3----8--------7-----7----10---7----------
D|------------------------------------------------
A|--3---------------------------------------------
E|------------------------------------------------
  SH_________________________________________ (SH = Semi Harmonico)





ESTRIBILLO
e|------------------------------------------------------------------------
B|------------------------------------------------------------------------
G|--------------------------------------7-----7-----7-----8-----8-----8---
D|--------------------------------------7-----7-----7-----8-----8-----8---
A|--5-5-5-5-5-5-5-5---7-7-7-7-7-7-7-7---5-5-5-5-5-5-5-5---6-6-6-6-6-6-6-6-
E|--3-3-3-3-3-3-3-3---5-5-5-5-5-5-5-5-------------------------------------




RIFF 4 (durante el primer solo)
E5  E5  E5 |D#5 D#5 D5 |G5...A#5|G5...
C5  C5  C5 |D#5 D#5 D5 |G5...A#5|G5...
E5  E5  E5 |D#5 D#5 D5 |G5...A#5|G5...
E5  E5  E5 |D#5 D#5 D#5...............

El solo esta en la escala menor natural de G




PUENTE
e|------------------------------------------
B|------------------------------------------
G|------------------------------------------
D|--5---7-----5---------5---7-----5---------
A|--5---7-----5---5-----5---7-----5---5-----
E|--3---5-----3---5-----3---5-----3---5-----




RIFF 5
D#5  D#5  D5|C5  A#5  A5|G5...A#5|G5...





Y ahora si, la estructura de la cancion:
INTRO
RIFF 1a x4     RIFF 1b x4
RIFF 2a
RIFF 1a x8     RIFF 1b x4
RIFF 3
RIFF 2a        RIFF 2b
ESTRIBILLO x2
RIFF 4 (Solo)
RIFF 1a x4     RIFF 1b x4
RIFF 3
RIFF 2a
RIFF 1a x8
RIFF 3
RIFF 2a (una ligera variacion en la 2ª guitarra)
ESTRIBILLO x4
PUENTE
RIFF 5 x4
INTRO (LA 2ª parte)
RIFF 2a (con otra pequeña variacion)
ESTRIBILLO x4
RIFF 4
RIFF 2a
ESTRIBILLO (muchas veces, es la ritmica en el ultimo solo)

El ultimo solo esta en la menor harmonica de G.



Eso es todo, si os gusta otro dia subo los punteillos y los solos y eso.
Cualquier cosa a kernelboy@superjmn.com, un saludo!





Calificar esta versión:
Aviso: Este fichero es trabajo propio de su transcriptor y representa su interpretación personal de la canción. El material contenido en esta página es para exclusivo uso privado, por lo que se prohibe su reproducción o retransmisión, así como su uso para fines comerciales.
Más versiones de A Fuego, Extremoduro
A Fuego
tablatura
A Fuego (ver 2)
tablatura
Descubre más canciones de Extremoduro