Voy Por Ella, Evolución (acordes) (ver 2)

Autor: isaac184 | 31444 visualizaciones

a7amb7ccmaj7dm7ee7g


Intro:  E7 - A7



	  Dm7		  Cmaj7
	Usted supo distraerme
	  Dm7		     Cmaj7
	usted supo hacerme daño
	       Am	  A7
	y está bien, ya pasó.

	     Dm7		 Cmaj7
	Pero no pienso ser su amigo
	Dm7		    Cmaj7
	no voy a ser su amante
	       Am	  A7
	porque no, ya me voy.

	Dm7		Cmaj7
	Quítese de mi paso
	Dm7		Cmaj7
	llevo bastante prisa
	      Am	  A7
	por favor entiéndame.

	Dm7		  Cmaj7
	Quise una vez amarla
	Dm7		 Cmaj7
	quise tratarla bien
	     Am		  B7
	pero no usted falló.

	  G		   C
	Y hay una mujer perfecta
	 G		  Am
	caminado por las calles
	   G		   C	
	ella me anda buscando
	  G		       Am
	mientras yo la busco a ella
	  G		    C
	y cuando yo la encuentre
	 G		   Am	
	más van a brillar mis ojos
	   G		    C	
	y con ese amor tan fuerte
	    G		     Am
	va a calmar a mis demonios.

	 Dm7		 E
	¿Dónde estará ahora?
	   Dm7	     B7
	¿A quién estará besando?

	G			 C
	Pues ojalá y le esté gustando
 	 G		 Am
	ojalá que se divierta
	G		       C
	mientras ella esté contenta
	G		  Am
	yo seré feliz por ella
	G		    C
	tengo que seguir andando
	G			  Am
	tengo que encontrar sus huellas
	G		      C
	y el día que yo la encuentre
	G		   Am
	voy a ser feliz con ella



	Dm7 - Cmaj7 - Dm7 - Cmaj7 - Am - A7


	 Dm7		 E
	¿Dónde estará ahora?
	 Dm7		       B7
	¿Quién te estará pensando?


	G		      C
	Ya sé lo que está sintiendo
	G		    Am
	sabe que ya voy por ella
	G			C
	siente que la estoy buscando
	G		      Am	
	mientras mira las estrellas
	G		   C
	una estrella va bajando
	G			  Am
	pide a Dios que yo la encuentre
	G		    C	
	tengo que seguir andando
	G			Am
	porque ella me anda buscando
	G		    C
	tengo que seguir andando 
	G			Am
	porque ella me anda buscando
	G		    C
	tengo que seguir andando 
	G			Am
	porque ella me anda buscando
	
	

	Final
	   G            C       G            Am
	|--------------------------------------------|
	|--------------------------------------------|
	|--------------------------------------------|
	|--------------------------------------------|
	|---------0--2--3--------------0--2--0-------|
	|--3--------------------3--------------------|

	    G           C       G           Am
	|----------------------------------------------------------|
	|-------------------------------------------------0--------|
	|-------------------------------------------0h2-------0h2--|
	|----------------------------------------------------------|
	|---------0--2--3-------------0--2--0----------------------|
	|---3-------------------3----------------------------------|


	Se repite.





Comentarios del colaborador: Fuente: Lacuerda.net

Calificar esta versión:
Aviso: Este fichero es trabajo propio de su transcriptor y representa su interpretación personal de la canción. El material contenido en esta página es para exclusivo uso privado, por lo que se prohibe su reproducción o retransmisión, así como su uso para fines comerciales.
Más versiones de Voy Por Ella, Evolución
Voy Por Ella
acordes
Voy Por Ella (ver 2)
acordes
Descubre más canciones de Evolución