My Immortal, Evanescence (tablatura)

Autor: Kris114 | 39910 visualizaciones

Artist:Evanescence
Title:My Immortal
Tunning:Standard(EADGBE)
Tabbed by:Kristian Javier Mejia    kristian.aciago@hotmail.com

Esta es mi primera tablatura que subo, he mirado todas las versiones y estan mal. Aqui tienen una version correcta de esta cancion ^^ !


0---0---4---2-|
2---0---5---2-|
2---1---6---2-|
2---2---6---4-|
0---2---4---4-|
0---0---4---2-|
A   E  C#m F#m
Intro

E----------0-------------------4-----|
B------2-------2-----------5-----5---|
G---2---2----2---2-----------6--6-6--|
D-2-----------------------6----------| x2
A-----------------------4------------|
E------------------------------------|


A                     C#m
I'm so tired of being here
A                    C#m
Suppressed by all my childish fears
A
and if you have to leave
C#m
I wish that you would just leave
A
Your presence still lingers here
C#m                         F#m
and it won't leave me alone

Refrain:
C#m                         F#m
These wounds won't seem to heal
C#m   	               F#m
This pain is just too real
C#m                       E              F#m
There's just too much that time cannot erase

Chorus:
F#m      D         E         C#m         F#m
When you cried I'd wipe away all of your tears
F#m        D         E          C#m         F#m
When you'd scream I?d fight away all of your fears
F#m   D         E            C#m          F#m
and I held your hand through all of these years
        D      E	           A
But you still have    all of me


Repeat intro x2


A
You used to captivate me
C#m                   A
by your resonating light
A                    C#m                  A
now I?m bound by the life you left behind
A
Your face it haunts
C#m                    A
my once pleasant dreams
A               C#m
your voice it chased away
A                 F#m
all the sanity in me

Refrain
Chorus

D              F#m           E                F#m
I've tried so hard to tell myself that you?re gone,
    D                    C#m
but though you're still with me,
D           E
I've been alone all


Solo(Distortion)

E---------------------------------------------------------------------------|
B---------------------------------------------------------------------------|
G-----------------------------------------6p4-2p1---------------------------|
D---4h6-6h7-7b-7-6h7-----4h7-6-7p6-----------------7-6-4h6-4----------------|
A--------------------5b-------------7p4-------------------------------------|
E---------------------------------------------------------------------------|
   along,

E---------------------------------------------------------------------------|
B---------------------------------------------------------------------------|
G---------4b---6h7p6b----6h7p6-4h6p4----------------------------------------|
D---4h6h7----------------------------7p6h7b---------------------------------|
A---------------------------------------------------------------------------|
E---------------------------------------------------------------------------|


Repeat Chorus(Distortion)

E--222--------------------------------222-----------------------------------|
B--222--------------------------------222-----------------------------------|
G--222--------777-----999-----666-----222-----777-----999-----666-----------|
D--444--------777-----999-----666-----444-----777-----999-----666-----------|
A--444--------555-----777-----444-----444-----555-----777-----444-----------|
E--222--------------------------------222-----------------------------------|
   When you cried...                   And i held....

E--222-------------------------|
B--222-------------------------|
G--222-----777-----999---------|
D--444-----777-----999---------|
A--444-----555-----777---------|
E--222-------------------------|
   But you still have...


Outro

E--------0-------------------4------------------0----------------4----------|
B-----2-------2-----------5------5-----------2-------2--------5-----7--5----|
G--2---2---2---2-----------6---6---6-------2--2----2---2--------6------6----|
D-2----------------------6----------------2------------------6---------7----|
A----------------------4-----------------------------------4----------------|
E---------------------------------------------------------------------------|
 All of me....

b  bend
h  hammer-on
p  pull-off
Calificar esta versión:
Aviso: Este fichero es trabajo propio de su transcriptor y representa su interpretación personal de la canción. El material contenido en esta página es para exclusivo uso privado, por lo que se prohibe su reproducción o retransmisión, así como su uso para fines comerciales.
Más versiones de My Immortal, Evanescence
My Immortal
acordes
My Immortal (ver 2)
acordes
My Immortal
tablatura
My Immortal
tablatura
My Immortal (ver 2)
tablatura
Descubre más canciones de Evanescence