Moneda Corriente, Estelares (tablatura)

Autor: Anónimo | 27870 visualizaciones

bueno mas que modificacion la altere toda y le puse una parte del
coro que lleva un pequeño punteo

priemro hacemos los dos acordes iniciales la# y re#


  LA#   RE#
E-6--6--6--6--------------------------------
A-8--8--6--6--------------------------------
D-8--8--8--8--------------------------------
G-7--7--8--8----------10-8-8--------8-------
B-6--6--8--8--11-10-8------9-11-9-8-9-11-9-8
E-6--6--6--6---------------8--------8------- luego sigue re# y la#

bueno eso es para el coro y el solo va asi:


E-------------------------------------------------
A-6---4---3-0-1-2-5-7-----------------------------
D--4s6-4s6-----------4-6---6----------------------
G-----------------------3s4-3s4-3s8---------------
B----------------------------------10h11-10-9-10-9
E-------------------------------------------------

bueno saludos...
Calificar esta versión:
Aviso: Este fichero es trabajo propio de su transcriptor y representa su interpretación personal de la canción. El material contenido en esta página es para exclusivo uso privado, por lo que se prohibe su reproducción o retransmisión, así como su uso para fines comerciales.
Más versiones de Moneda Corriente, Estelares
Moneda Corriente
acordes
Moneda Corriente
tablatura
Descubre más canciones de Estelares