Las Luces Del Sueño, Estelares (tablatura)

Autor: Anónimo | 32970 visualizaciones

les dejo mi msn para cualqier cosa !!!

esta transcripcion suena bastante bien es facil

Msn: Sooi.Fedee@hotmail.com

Facebook: Fedee Atadia jaaja xD



Intro: Am Em Am Em

B|-5-5-5-5-5-5--8-8-8-8--10-|


B|-5-5-5-5-5---------|
G|------------7-7>9--|

Riff 1

E|-777---------7----777--------7--|
B|-----101010----10-----101010----|

Riff 2

E|-333-----3---333-----3--|
B|-----666---6-----666----|



 Am           Em
 Entre la gente

 Am           Em
 la vi sonreír,

 Am           Em
 nunca en mi vida

 Am           Em
 la había visto así.

 Am           Em
 Estaba preciosa,

 Am           Em
 tenía un traje beige.

 Am           Em
 Mientras bailaba

 Am           Em
 yo volvía a creer.


Siempre en el estribillo hace los riff de arriba

      Riff 1
 G               D
 Sus ojos muestran
      Riff 2
 Am              C
 las luces del sueño.
      Riff 1
 G               D
 Sus ojos muestran
      Riff 2
 Am              C
 las luces de la antorcha.


Intro: Am Em Am Em


 Am         Em
 Me le acerqué

 Am           Em
 y mirando sus labios le dije:

 Am           Em
 "estás hecha un sueño Ángel,

 Am           Em
 pensé que te habías ido".

 Am           Em
 Ella limpió mis ojos,

 Am           Em
 los sacó del olvido

 Am           Em
 y con voz de viento dijo:

 Am           Em
 "extrañaba tu abrigo".

      Riff 1
 G               D
 Sus ojos muestran
      Riff 2
 Am              C
 las luces del sueño.
      Riff 1
 G               D
 Sus ojos muestran
      Riff 2
 Am              C
 las luces de la antorcha.
      Riff 1
 G               D
 Pero en el fondo
      Riff 2
 Am                  C
 siente el temor de no saber
      Riff 1
 G               D
 a dónde vamos.
      Riff 2
 Am                    C
 Pero eso es lo que nos une.


Introo: Am Em Am Em (el ultimo acorde se rasgea de abajo hacia arriba)

Soloo:

G|-9^-11^-9-7-9-9^--11/12--9-7-9--|

E|--------------------------------------------------------|
B|-----10---10---10---10------12----12----12----12--------|
G|-8>9----9----9----9----9>11----11----11----11-----------|

E|--------------15-------------------------17--|
B|-------13--------13----13---------15---------|
G|-11>12----12--------12------12>14----14------|

E|-5-5-3-2-0-|x2  (Estoo lo hace con la 6ta cuerda)

      Riff 1
 G               D
 Sus ojos muestran
      Riff 2
 Am              C
 las luces del sueño.
      Riff 1
 G               D
 Sus ojos muestran
      Riff 2
 Am              C
 las luces de la antorcha.
      Riff 1
 G               D
 Pero en el fondo
      Riff 2
 Am                  C
 siente el temor de no saber
      Riff 1
 G               D
 a dónde vamos.
      Riff 2
 Am                    C
 Pero eso es lo que nos une.


Final: G D Am C

E|-13-15-16-16-15-13------------------------------------|
B|--------------------13-14-16-16-14-13-----------------| x4
G|---------------------------------------15-17-18--20^--|

Despues la segunda guitarra hace en el ultimo osea,
el cuertoo estoo:

Segunda guitarra:

D|--------------5--7-7->9--|
A|-0-2-3-2-3--5------------|


^: (Arrastras la cuerda hacia arriba o hacia abajo)
>: (Deslisas)
/: (Ligada)
Calificar esta versión:
Aviso: Este fichero es trabajo propio de su transcriptor y representa su interpretación personal de la canción. El material contenido en esta página es para exclusivo uso privado, por lo que se prohibe su reproducción o retransmisión, así como su uso para fines comerciales.
Más versiones de Las Luces Del Sueño, Estelares
Las Luces Del Sueño
acordes
Las Luces Del Sueño
tablatura
Descubre más canciones de Estelares